Song name
# A B C D E F G H I J K L M N O P Q R S T U V W X Y Z

Misc Unsigned Bands - Risk 113 - Sgr tab

The beginning starts with an acoustic simulator and a little reverb
Intro/Outro

Guitar 1
e|---------------------|          |-------------2-|
B|---------------------|          |-------------3-|
G|---------------------|          |-------------2-|
D|---0----2----4----7--|          |---4---2---0-0-|
A|--0-0--2-2--4-4--7-7-|          |--4-4-2-2--0---|
D|-0----2----4----7----|x6 then   |-4---2-----0---|

Guitar 2
comes in with disortion quietly
e|--------------|
B|------7b------|
G|-7b-9b--9b-7b-|
D|--------------|
A|--------------|
D|--------------|

Post Chorus thingy
figure out the strumming

Guitar 1

e|---------------------------------|
B|---------------------------------|
G|---------------------------------|
D|-9999-22-4444-55-44444444444-2-0-|
A|-9999-22-4444-55-44444444444-2-0-|
D|-9999-22-4444-55-44444444444-2-0-|x2

Guitar 2

e|--------------------2222-|
B|---10-----7-----7---3333-|
G|----9-----6-----6---2222-|
D|----7-----4-----4---0000-|
A|-------------------------|
D|-------------------------|x2


Verse

Guitar 1
(palm muted)
e|----------------------------------|
B|----------------------------------|
G|----------------------------------|
D|-77777777222222224444444400000000-|
A|-77777777222222224444444400000000-|
D|-77777777222222224444444400000000-|x2

Pre Chorus


e|--------------|
B|-10~10h12p10b-|
G|--------------|
D|--------------|
A|--------------|
D|--------------|

e|--------------------|
B|--------------------|
G|--------------------|
D|---7----2----4--0-0-|
A|--7-7--2-2--4-4-0-0-|
D|-7----2----4----0-0-|

Chorus
Guitar 1
all x2

e|------------------------------------------|
B|------------------------------------------|
G|------------------------------------------|
D|-11h12h11-12h14h12-11h12h11-12h14---7h9h7-|
A|---------------------------------12-------|
D|------------------------------------------|

Guitar 2

e|----------------------|
B|----------------------|
G|----------------------|
D|-0000-2222-4444-9999b-|
A|-0000-2222-4444-9999b-|
D|-0000-2222-4444-9999b-|

Solo 

Guitar 1

e|--------------------------------|
B|--------------------------------|
G|--------------------------------|
D|-7777h99/11-11h12-11-9-9h11p9\7-|
A|--------------------------------|
D|--------------------------------|


e|--------------------------------|
B|--------------------------------|
G|--------------------------------|
D|-7777h99/11-11h12-11-9-9h119h11-|
A|--------------------------------|
D|--------------------------------|


e|--------------------------------|
B|--------------------------------|
G|--------------------------------|
D|-7777h99/11-11h12-11-9-9h11p9\7-|
A|--------------------------------|
D|--------------------------------|


e|--------------------------------|
B|---------------10--10h12-10-12b-|
G|-----------9h11--11-------------|
D|-7777h99/11---------------------|
A|--------------------------------|
D|--------------------------------|

Okay the order is..


Intro/Outro
Post chorus
Verse
Pre Chorus
Chorus
Post Chorus
Verse
Chorus
Chorus(palm muted)
Solo
Chorus
Intro/Outro


Alrightyyy 

Tap to rate this tab
# A B C D E F G H I J K L M N O P Q R S T U V W X Y Z