Song name
# A B C D E F G H I J K L M N O P Q R S T U V W X Y Z

Misc Unsigned Bands - Duckbomb - Tension tab

-------------------------------------------------------------------------------
			     Tension - Duckbomb
-------------------------------------------------------------------------------

Tabbed By : Zach
e-mail: zombiedeth@hotmail.com

Tuning: standard (but its more authentic if your slightly out of tune)

!!!!NOTE!!!! its easier to tab the bass but if you want the guitar just play power 
on the same notes !!!!!!

   INTRO (with drums guitar enters at the open notes)
G|---------------------------------------------------------------------------|
D|---------------------------------------------------------------------------|
A|---------------------------------------------------------------------------|
E|--4-5-4-5-4-5-4-000--------------------------------------------------------|

   Verse (always fast)
G|---------------------------------------------------------------------------|
D|---------------------------------------------------------------------------|
A|---------------------------------------------------------------------------|
E|--4455445544554400--44554455-88-10--777------------------------------------|

   Bridge
G|---------------------------------------------------------------------------|
D|---------------------------------------------------------------------------|
A|---------------------------------------------------------------------------|
E|--8--7--8--7--88-8-888-777-7-----------------------------------------------|

   Chorus (x means 10th fret)
G|---------------------------------------------------------------------------|
D|---------------------------------------------------------------------------|
A|--77-7-777--xx-x-xxx-------------------------------------------------------|
E|----------------------88-8-888--x-----77-7-777-----------------------------|

  Alternate Chorus for last chorus
G|------------------------------------------------------------------------------------|
D|------------------------------------------------------------------------------------|
A|--77-7-777-12--xx-x-xxx-------------------------------------------------------------|
E|-------------------------12--88-8-888--x-----77-7-777-------------------------------|

intro 1
verse 2
bridge 1
chorus 2
verse 1 (as intro to next verse)
verse 2
bridge 1
chorus 2
alternate chorus 2
verse first half end on open E
Tap to rate this tab
# A B C D E F G H I J K L M N O P Q R S T U V W X Y Z