Song name
# A B C D E F G H I J K L M N O P Q R S T U V W X Y Z

Misc Unsigned Bands - Shock Damage - Age Of Immortality tab

                            SHOCK DAMAGE - AGE OF IMMORTALITY
                                                                                         
        BPM = 250.
INTRO
RYTHM GUITAR

E|--------------------------------------------------------------------------------|
B|--------------------------------------------------------------------------------|
G|--------------------------------------------------------------------------------|
D|--------------------------------------------------------------------------------|
A|--9--9-9--9--9-9-9-9--10-9-7-------------9--9-9--9--9-9-9-9--10-9-7--------9s10-|
E|--7--7-7--7--7-7-7-7---------10-9-7-5s7--7--7-7--7--7-7-7-7---------10-9-7------|
       P.M       P.M                          P.M       P.M

LEAD GUITAR

E|-----------------------------------------|
B|-----------------------------------------|
G|-----------------------------------------|
D|-----------------------------------------|
A|--9--9--------------9--9-9--9------------|
E|--7--7(let ring)----7--7-7--7(let ring)--|
                         P.M

RYTHM GUITAR

E|------------------------------------------------------------------------------|
B|------------------------------------------------------------------------------|
G|------------------------------------------------------------------------------|
D|------------------------------------------------------------------------------|
A|--7--7-7--7--7-7-7-7-7-7-7-7-7-7-7-7----7--7-7--7--7-7-7-7-7-7-7-7-7-7-7-7----|
E|--5--5-5--5--5-5-5-5-5-5-5-5-5-5-5-5----5--5-5--5--5-5-5-5-5-5-5-5-5-5-5-5----|
       P.M     P P P P P P P P P P P P       P.M     P P P P P P P P P P P P
               M M M M M M M M M M M M               M M M M M M M M M M M M

LEAD GUITAR

E|----------------------------------------------------------------------------------|
B|----------------------------------------------------------------------------------|
G|----------------------------------------------------------------------------------|
D|----------------------------------------------------------------------------------|
A|--7--7-7--7--7-7-7-7--7s9-7-5------------7--7-7--7--7-7-7-7-7s9-7-9-9s10-9-7-5s7--|
E|--5--5-5--5--5-5-5-5----------9-7-5-7s9--5--5-5--5--5-5-5-5-----------------------|
       P.M       P.M                          P.M       P.M


RYTHM GUITAR

E|--------------------------------------------------------------------------------|
B|--------------------------------------------------------------------------------|
G|--------------------------------------------------------------------------------|
D|--------------------------------------------------------------------------------|
A|--9--9-9--9--9-9-9-9--10-9-7-------------9--9-9--9--9-9-9-9--10-9-7--------9s10-|
E|--7--7-7--7--7-7-7-7---------10-9-7-5s7--7--7-7--7--7-7-7-7---------10-9-7------|
       P.M       P.M                          P.M       P.M

LEAD GUITAR

E|------------------------------------------------------------------------------|
B|------------------------------------------------------------------------------|
G|------------------------------------------------------------------------------|
D|------------------------------------------------------------------------------|
A|--9--9-9--9--9-9-9-9-9-9-9-9-9-9-9-9----9--9-9--9--9-9-9-9-9-9-9-9-9-9-9-9----|
E|--7--7-7--7--7-7-7-7-7-7-7-7-7-7-7-7----7--7-7--7--7-7-7-7-7-7-7-7-7-7-7-7----|
       P.M     P P P P P P P P P P P P       P.M     P P P P P P P P P P P P
               M M M M M M M M M M M M               M M M M M M M M M M M M

RYTHM GUITAR

E|------------------------------------------------------------------------------|
B|------------------------------------------------------------------------------|
G|------------------------------------------------------------------------------|
D|------------------------------------------------------------------------------|
A|--7--7-7--7--7-7-7-7-7-7-7-7-7-7-7-7----7--7-7--7--7-7-7-7-7-7-7-7-7-7-7-7----|
E|--5--5-5--5--5-5-5-5-5-5-5-5-5-5-5-5----5--5-5--5--5-5-5-5-5-5-5-5-5-5-5-5----|
       P.M     P P P P P P P P P P P P       P.M     P P P P P P P P P P P P
               M M M M M M M M M M M M               M M M M M M M M M M M M

LEAD GUITAR

E|----------------------------------------------------------------------------------|
B|----------------------------------------------------------------------------------|
G|----------------------------------------------------------------------------------|
D|----------------------------------------------------------------------------------|
A|--7--7-7--7--7-7-7-7--7s9-7-5------------7--7-7--7--7-7-7-7-7s9-7-9-9s10-9-7-5s7--|
E|--5--5-5--5--5-5-5-5----------9-7-5-7s9--5--5-5--5--5-5-5-5-----------------------|
       P.M       P.M                          P.M       P.M


VERS 1
RYTHM GUITAR

E|----------------------------------------------------|
B|----------------------------------------------------|
G|----------------------------------------------------|
D|----------------------------------------------------|
A|--9--9-9--9----9--9-9--9----7--7-7--7----7--7-7--7--| x2
E|--7--7-7--7----7--7-7--7----5--5-5--5----5--5-5--5--|
       P.M          P.M          P.M          P.M

LEAD GUITAR

E|----------------------------------------------------------------|
B|----------------------------------------------------------------|
G|----------------------------------------------------------------|
D|-------------------------------------------------------------v--|
A|--9--9-9--9----9--9-9--9----7--7-7--7----7--7-7--7--7-9-9s10-9--| x2
E|--7--7-7--7----7--7-7--7----5--5-5--5----5--5-5--5--------------|
       P.M          P.M          P.M          P.M

PRE CHORUS
BOTH GUITARS

E|------------------------------------------------------------------------------------------------|
B|------------------------------------------------------------------------------------------------|
G|------------------------------------------------------------------------------------------------|
D|--9--9-9--9--9-9--9--9----5--5-5--5--5-5--5--5----7--7-7--7--7-7--7--7--------------------------|
A|--7--7-7--7--7-7--7--7----3--3-3--3--3-3--3--3----5--5-5--5--5-5--5--5----7--7-7--7--7-7--7--7--|
E|-----P-P-----P-P-----P-------P-P-----P-P-----P-------P-P-----P-P-----P----5--5-5--5--5-5--5--5--|
       M M     M M     M       M M     M M     M       M M     M M     M       P.M     
    P
                                                                                         
     M

cHORUS
BOTH GUITARS

E|-------------------------------|
B|-------------------------------|
G|-------------------------------|
D|--2----5----7----9----2-2-2-2--|
A|--2----5----7----9----2-2-2-2--| x4
E|--0----3----5----7----0-0-0-0--|


VERS 2
RYTHM GUITAR

E|----------------------------------------------------------------------------------|
B|----------------------------------------------------------------------------------|
G|----------------------------------------------------------------------------------|
D|----------------------------------------------------------------------------------|
A|--9--9-9--9--(9----)-9--9-9--9--(9----)----7--7-7--7--(7----)-7--7-7--7--(7----)--|
E|--7--7-7--7--(7 X12)-7--7-7--7--(7 X12)----5--5-5--5--(5 X12)-5--5-5--5--(5 x12)--|
       P.M      P         P.M      P            P.M      P         P.M      P
                M                  M                     M                  M

LEAD GUITAR
E|----------------------------------------------------------------------------------------------|
B|----------------------------------------------------------------------------------------------|
G|----------------------------------------------------------------------------------------------|
D|----------------------------------------------------------------------------------------------|
A|--9--9-9--9--(9----)-9--9-9--9--(9----)----7--7-7--7--(7----)-7--7-7--7--(7----)--7-9-9s10-9--|
E|--7--7-7--7--(7 X12)-7--7-7--7--(7 X12)----5--5-5--5--(5 X12)-5--5-5--5--(5 x12)--------------|
       P.M      P         P.M      P            P.M      P         P.M      P
                M                  M                     M                  M


PRE CHORUS
BOTH GUITARS

E|------------------------------------------------------------------------------------------------|
B|------------------------------------------------------------------------------------------------|
G|------------------------------------------------------------------------------------------------|
D|--9--9-9--9--9-9--9--9----5--5-5--5--5-5--5--5----7--7-7--7--7-7--7--7--------------------------|
A|--7--7-7--7--7-7--7--7----3--3-3--3--3-3--3--3----5--5-5--5--5-5--5--5----7--7-7--7--7-7--7--7--|
E|-----P-P-----P-P-----P-------P-P-----P-P-----P-------P-P-----P-P-----P----5--5-5--5--5-5--5--5--|
       M M     M M     M       M M     M M     M       M M     M M     M       P.M     
    P
                                                                                         
     M

cHORUS
BOTH GUITARS

E|-------------------------------|
B|-------------------------------|
G|-------------------------------|
D|--2----5----7----9----2-2-2-2--|
A|--2----5----7----9----2-2-2-2--| x4
E|--0----3----5----7----0-0-0-0--|


SOLO RIFF
RYTHM GUITAR

E|-------------------------------------------------------------------------|
B|-------------------------------------------------------------------------|
G|-------------------------------------------------------------------------|
D|--9-----9-----9---------------------7-----7-----7------------------------|
A|--7-----7-----7---------------------5-----5-----5------------------------| X4
E|----000---000---000-000-000-000-000---000---000---000-000-000-000-000----|

E|--------------------------------------------------------------------------------------|
B|--------------------------------------------------------------------------------------|
G|--------------------------------------------------------------------------------------|
D|--9-----9-----9-----77---------------------7-----7-----7-----99-----------------------|

X4
E|----000---000---000----000-000-000-000-000---000---000---000----000-000-000-000-000---|

SOLO
LEAD GUITAR

E|------ (T 19)-15-12 x8- (T 20)-15-12 x8- (T 17)-15-12 x8- (T 19)-15-12 x7- (T 17)-15-12-----|
B|--------------------------------------------------------------------------------------------|
G|--------------------------------------------------------------------------------------------|
D|--------------------------------------------------------------------------------------------|

x2
E|--------------------------------------------------------------------------------------------|

E|---------12-----------------------------------------------------------------------|
B|---------15b x16-----12-15-12h15r12----12-----------------------------------------|
G|------------------------------------14----14-12-14-12----12----------12----12s14--|
D|------------------------------------------------------14----14-12-14----14--------|
A|----------------------------------------------------------------------------------|
E|----------------------------------------------------------------------------------|

E|---------------------------v------------------------v-----------------------------|
B|-----------12----12-12h13r12--------12----12-12h13r12--------12-------------------|
G|-----12-14----14--------------12-14----14--------------12-14----14-12s7-7s9-------|
D|----------------------------------------------------------------------------------|
A|----------------------------------------------------------------------------------|
E|----------------------------------------------------------------------------------|

E|----------------------------------------------------------------------------------------------------------------|
B|---------7---7-7h8r7----7-8-7---8s10-8-7----7-8-7h8s10-8h10s12-10h12s13-12h13s15-13h15s17-15h17s19-17h19s20-20--|
G|-----7-9---9----------9-------9-----------9---------------------------------------------------------------------|
D|----------------------------------------------------------------------------------------------------------------|
A|----------------------------------------------------------------------------------------------------------------|
E|----------------------------------------------------------------------------------------------------------------|

E|-----------------TREMOLO PICKED-----| E|------------------------------------------------------------|
B|--17-17h19r17-----17h19r17----------| B|--20b-20b-20b-20-17-20-17h20r17----17-----------------------|
G|--------------19b----------19b x16--| G|--------------------------------19----19-17-19b-19-17v------|
D|------------------------------------| D|------------------------------------------------------------|
A|------------------------------------| A|------------------------------------------------------------|
E|------------------------------------| E|------------------------------------------------------------|

E|-----------------------------------------------------------------------------------------|
B|--17-20-17h20r17----17-----------------------------------------------------------v-------|
G|-----------------19----19-17-19r17s16-17r16s14-16r14s12-14r12s11-12r11s9-11r9s7-(9 N.H)--|
D|-----------------------------------------------------------------------------------------|
A|-----------------------------------------------------------------------------------------|
E|-----------------------------------------------------------------------------------------|


cHORUS
BOTH GUITARS

E|-------------------------------|
B|-------------------------------|
G|-------------------------------|
D|--2----5----7----9----2-2-2-2--|
A|--2----5----7----9----2-2-2-2--| x4
E|--0----3----5----7----0-0-0-0--|


ENDING RIFF
BOTH GUITARS

E|-----------------------------------------------------------------|
B|-----------------------------------------------------------------|
G|-----------------------------------------------------------------|
D|--2----5----7----9----2-2-2-2----2----5----7----9----2-2-2-2--2--|
A|--2----5----7----9----2-2-2-2----2----5----7----9----2-2-2-2--2--|
E|--0----3----5----7----0-0-0-0----0----3----5----7----0-0-0-0--0--|
Tap to rate this tab
# A B C D E F G H I J K L M N O P Q R S T U V W X Y Z