Song name
# A B C D E F G H I J K L M N O P Q R S T U V W X Y Z

Misc Unsigned Bands - Below Zero - Cant Stop This Fight tab

-------------------------------------------------------------------------------
			     Can't stop this fight - Below Zero
-------------------------------------------------------------------------------
Tabbed by:Mike
Email:

Tuning:Standard
Intro:
e|---------------------------------------------------------------------------|
B|---------------------------------------------------------------------------|
G|---------------6h7h6-------------------------------------------------------|
D|-------7-7h9h7-------7-----------------------------------------------------|
A|---7/9-----------------7---------------------------------------------------|
E|-5-------------------------------------------------------------------------|


| /  slide up
| \  slide down
| h  hammer-on
| p  pull-off
| ~  vibrato
| +  harmonic
| x  Mute note
Tap to rate this tab
# A B C D E F G H I J K L M N O P Q R S T U V W X Y Z