Song name
# A B C D E F G H I J K L M N O P Q R S T U V W X Y Z

Misc Unsigned Bands - Personal Suicide - Death To The Slaughter tab

Intro


e|---------------------------------------------------|
B|---------------------------------------------------|
G|-----------------------5-7-5-----------------------|
D|---1-3-5-4-3-2-3-------3-5-3-----------------------|x3
A|-0---------------------3-5-3-----------------------|
D|-0---------------------3-5-3-----------------------|

e|-----------------------------------------|
B|-----------------------------------------|
G|--5--------------------------------------|
D|--3---let ring---------------------------|   hold for 5 seconds
A|--0--------------------------------------|
D|--0--------------------------------------|

Verse


e|-3-3-x-----------------------------------------|
B|-4-4-x-----------------------------------------|
G|-5-5-x-5-5-5-5-7-------------------------------|
D|-5-5-x-5-5-3-3-5-------------------------------|x2
A|-3-3-x-3-3-3-3-5--5-6-4-2-2-2-2-0-0-0-0--------|
D|-----------3-3-0--5-6-4-2-2-2-2-0-0-0-0--------|
                    |----------------------------|pm
chorus
e|------------------------------------------------|
B|------------------------------------------------|
G|-------------------------5-5-5------------------|
D|---5-5-5-5-9-9-9-9-7-7-7-5-5-5------------------|x 2
A|---5-5-5-5-9-9-9-9-7-7-7-3-3-3-0-0--------------|
D|---5-5-5-5-9-9-9-9-7-7-7-------0-0--------------|

solo
rythm
e|--------------3--------------------------------|
B|--------------4--------------------------------|
G|--------------5------7-----5------0------------|
D|--------------5------7-----5------0------------|
A|---0----------3------5-----3------0------------|
D|---0-----------------0-----0-------------------|

Lead
e|-----------------------------3------------------|
B|------------------------------4-----------------|
G|-------------------------------5----------4-----|
D|------2-6-7-8------3---3--------5------2----4---|
A|---0----------9--5---2---1-9-----3/9/1--------6-|
D|---0------------0-------------------------------|

outro  pm
e|---------------------------------------------------------------------------|
B|---------------------------------------------------------------------------|
G|---------------------------------------------------------------------------|
D|---------------------------------------------------------------------------|
A|--0-0-0-0-0-0-0-0----------------------------------------------------------|
D|--0-0-0-0-0-0-0-0----------------------------------------------------------|
Tap to rate this tab
# A B C D E F G H I J K L M N O P Q R S T U V W X Y Z