Song name
# A B C D E F G H I J K L M N O P Q R S T U V W X Y Z

Misc Unsigned Bands - Demonic Dream - Demon Walk tab

Intro/chorus
|------------------------------------------------------------------------------|
|------------------------------------------------------------------------------|
|------------------------------------------------------------------------------|
|------------------------------------------------------------------------------|
|-0--3--3h5--3^--0--3^--0--3^--0--3h5--3^--0--3^--0--3^--0--3h5--3^--0---------|
|-0--3--3h5--3^--0--3^--0--3^--0--3h5--3^--0--3^--0--3^--0--3h5--3^--0---------|

Verse             (x4)
|-----------------------------------------------------------------------------|
|-----------------------------------------------------------------------------|
|-----------------------------------------------------------------------------|
|-----------------------------------------------------------------------------|
|-0--0--0--3--0--0--0--5--0--0--0-3h5-----------------------------------------|
|-0--0--0--3--0--0--0--5--0--0--0-3h5-----------------------------------------|

order of placement

intro x4

verse x4

chorus x4

verse x4

solo/chorus x10

i will add the solo later
Tap to rate this tab
 
# A B C D E F G H I J K L M N O P Q R S T U V W X Y Z