Song name
# A B C D E F G H I J K L M N O P Q R S T U V W X Y Z

Misc Unsigned Bands - Cryptic Union - Call Of The Lycan tab

-------------------------------------------------------------------------------
			     Call Of The Lycan - Cryptic Union
-------------------------------------------------------------------------------

Tabbed by: Mciccone

Email:Cicconmr@muohio.edu

Tuning: Standard

Intro & Verse: (Both Guitar's in verse)

*Heavy Muting

Guitar 2: 

    E  Eb   A   Bb
e|-------------------------|
B|-------------------------|
G|--9---8------------------|
D|--9---8---7---8----------|
A|--7---6---7---8----------|
E|----------5---6----------|

Guitar 1:

(On Intro: Come in after second repeat)

     D   Db  G   Ab
e|-----------------------|
B|-----------------------|
G|---7---6---------------|
D|---7---6---5---6-------|  
A|---5---4---5---6-------|
E|-----------3---4-------| 

Bridge:

Both Guitars:

     F#          G
e|--------------------------------|  *Strum to the pattern of The Baron's
B|--------------------------------|   voice
G|--------------------------------|
D|---4-----------5----------------|
A|---4-----------5----------------|
E|---2-----------3----------------|

     This........Unlike you or me

    E   Eb  A   Bb
e|-------------------------|
B|-------------------------|
G|--9---8------------------|
D|--9---8---7---8----------|
A|--7---6---7---8----------|
E|----------5---6----------|   x2
Chorus:

Guitar 1:

    E5   C   G   D     E5   C   G   Bb B C
e|----------------------------------------------------|
B|----------------------------------------------------|
G|--x----5-------7-----x----5-------3-4-5-------------|
D|--2----5---5---7-----2----5---5---3-4-5-------------|
A|--2----3---5---5-----2----3---5---1-2-3-------------|
E|-----------3------------------3---------------------|  x 2

Guitar 2:

e|--------------10---------------------------------------------|
B|-------------------------------------------------------------|
G|-/12--9--12------12--11--11~--12-11-12/14-12-11h12p11--------|
D|-------------------------------------------------------------|
A|-------------------------------------------------------------|
E|-------------------------------------------------------------|

e|--------------10----------------------------------------------|
B|--------------------------------------------------------------|
G|-/12--9--12------12--11--11~--12-11-14b-15b-16b~--------------|
D|--------------------------------------------------------------|
A|--------------------------------------------------------------|
E|--------------------------------------------------------------|

e|--------------10----------------------------------------------|
B|--------------------------------------------------------------|
G|-/12--9--12------12--11--11~--12-11-12/14-12-11h12p11---------|
D|--------------------------------------------------------------|
A|--------------------------------------------------------------|
E|--------------------------------------------------------------|

e|--------------10----------------------------------------------------|
B|--------------------------------------------------------------------|
G|-/12--9--12------12--11--11~--12-11-14b-15b-16b--17b18b19b(20b~)----|
D|--------------------------------------------------------------------|
A|--------------------------------------------------------------------|
E|--------------------------------------------------------------------|

Intro & Verse:

Bridge:

Chorus:

Breakdown:

e|--------| *Trade with Paul on Drums, Heavy Muting
B|--------|
G|--------|
D|---5----|
A|---5----|
E|---3----|   x 12

Guitar 2:

* Come in on x4

e|-------------------------------|        |---------------------------------|
B|-------------------------------|        |---------------------------------|
G|-------------------------------|        |---------------------------------|
D|-------------------------------|        |---------------------------------|
A|-7p0-00-6p0-00-5p0-00-3p0-00---|        |-7p0-00-8p0-00-9p0-00-11p0-00----|
E|-------------------------------| x4     |---------------------------------| x3

Solo:

Guitar 1:

e|--------| *Trade with Paul on Drums, Heavy Muting
B|--------|
G|--------|
D|---4----|
A|---4----|
E|---2----|  x 4

    E5   C   G   D     E5   C   G   Bb B C
e|----------------------------------------------------|
B|----------------------------------------------------|
G|--x----5-------7-----x----5-------3-4-5-------------|
D|--2----5---5---7-----2----5---5---3-4-5-------------|
A|--2----3---5---5-----2----3---5---1-2-3-------------|
E|-----------3------------------3---------------------|  x 2

e|------------------------------------------------------------------------------|
B|------------------------------------------------------------------------------|
G|---------------------------------------------------12-14p12-----14p12-12~-----|
D|--------------------------------12-14p12----14-12-----------14----------------|
A|-----------------14p12----14-12----------14-----------------------------------|
E|--(/15)-15-12-15--------15----------------------------------------------------|

e|--15p12-----------12--15p12----------12-15p12-----------12-15p12-----------|
B|--------15-13p12------------15-13p12-----------15-13p12-----------15-12----|
G|---------------------------------------------------------------------------|
D|---------------------------------------------------------------------------|
A|---------------------------------------------------------------------------|
E|---------------------------------------------------------------------------|

e|-------------------------------------------------------------------------------|
B|-12-15br15-12~--12-12-12h13p12-------------------------------------------------|
G|----------------------------------14-12-----12---14p13p11----------------------|
D|-----------------------------------------14~---------------14p12p11------------|
A|---------------------------------------------------------------------14p12p11--|
E|-------------------------------------------------------------------------------|


e|-------------------------------------------------------------------------------|
B|-------------------------------------------------------------------------------|
G|-------------------------------------------------------------------------------|
D|---------------------------------------4--4----4-6-6~~-6~~-9-7-----7-9-7-------|
A|--------------------------*6*-----/6-6---6--6--------------------9--------10~--|
E|--14p12p11--14~\-----/4--------------------------------------------------------|

e|--------------------------------------------------------------------------|
B|--------------------------------------------------------------------------|
G|--------------------------------------------------------------13-11---11--|
D|--7p5--------5-7p5-------5-7p5------------5~/11-13-11----11--------13-----|
A|------8-7-5--------8-7-5-------8-7-5---8--------------13------------------|
E|--------------------------------------------------------------------------|

e|-------------------------|
B|-------------------------|
G|--14b-15b-16b-17b~-------|
D|-------------------------|
A|-------------------------|
E|-------------------------|

Play Chorus One Last Time

*Feel free to add random pinch harmonics at any moment

* This is for Alex.  And this band rocks, check out their Myspace

Key:

/ - Slide up
\ - Slide down
~ - Vibrato
~~ - Extreme Vibrato (this is almost like a downward bend of the string)
b - Bend one whole step
h - Hammer
p - Pull
* * - Pinch Harmonic
------------------------------------------------------------------------------------


Tap to rate this tab
# A B C D E F G H I J K L M N O P Q R S T U V W X Y Z