Song name
# A B C D E F G H I J K L M N O P Q R S T U V W X Y Z

Misc Unsigned Bands - Fail To Realize - Longer tab

This my band's first song off our album!!! let me know how you like it!!! i enjoy playin 
and i hope yall do too!!!

b = bend
v = vibrato
* = palm mute

intro
e|--------------------------------------------------------------------|
b|--------------------------------------------------------------------|
g|----0-0-------3-----0-0-------5b--3--0-0-------3----0--5b--3---3v---|
d|----0-0--3--5---5---0-0--3--5--------0-0--3--5---5-----------5----5-| x4
a|--------------------------------------------------------------------|
e|--------------------------------------------------------------------|

verses
e|------------------------------------------------------13b----11v----|
b|----------------------------------------------------------13--------|
g|---0-0----------------------------------12-10-----------------------|
d|---0-0------------------------x3--------12-10--10--12---------------|
a|---------12-12-12-12-12-12------------------------------------------|
e|---------10-10-10-10-10-10------------------------------------------|
           * * * * * * * * *

 ----------------------------------------15b-------------------------|
 ---------------------------------------------------13b--11v---------|
 ---0-0--------------------------------------10--12----------12v-----|
 ---0-0------------------------x3------------------------------------| x2
 ---------12-12-12-12-12-12------------------------------------------|
 ---------10-10-10-10-10-10------------------------------------------|
          * * * * * * * * *

chorus
e|-----------------------------2---2---2-2--2-2---2-------------------|
b|-----------------------------3---3---3-3--3-3-----3-----------------|
g|---2---2---2-2--2-2----------2---2---2-2--2-2-------2---------------|
d|---2---2---2-2--2-2-------------------------------------------------|
a|---0---0---0-0--0-0--------------------------------------2--2-2-2---|
e|---------------------0-3-4-------------------------------0--0-0-0---|
                                                              * *

  ----------------------------------|
  ----------------------------------|
  ----------------------------------|
  -------2--------------------2-----| x2
  ---2-2-2---2--2-2-2-----2-2-2-----|
  ---0-0-0---0--0-0-0-----0-0-0-----|
     * *        * *       * *

solo rhythm
e|--------------------------------------------------------------------|
b|--------------------------------------------------------------------|
g|--------------------------------------------------------------------|
d|--------------------------------------------------------------------| x4
a|---12-12-12-12-12-12-12-12-12-12-12-12-2-2-2-2-2-2-2-2-2-2-2-2------|
e|---10-10-10-10-10-10-10-10-10-10-10-10-0-0-0-0-0-0-0-0-0-0-0-0------|
     * * * * * * * * * * * * * * * * * * * * * * * * * * * * * *

i usually just improvise the solo to the solo rhythm....

intro x4
verses x2
chorus x2
verses x2
chorus x2
solo rhythm x4
chorus x2

enjoy and let me know what you think!!!!
Tap to rate this tab
# A B C D E F G H I J K L M N O P Q R S T U V W X Y Z