Song name
# A B C D E F G H I J K L M N O P Q R S T U V W X Y Z

Misc Unsigned Bands - Public School Rejects - Mick Rynerson tab

e|------------|------------|------------|------------|
b|------------|------------|------------|------------|
g|--------6---|--------6---|--------6---|-------6h7p6|
d|-----7----7-|-----7----7-|-----7----7-|-----7------|X4
a|---5--------|--44--------|------------|------------|
E|------------|------------|--77--------|--55--------|

e|------------|------------|------------|------------|
b|------------|------------|------------|-------5h7p5|
g|--------6---|--------6---|--------6---|-----6------|
d|-----7----7-|-----7----7-|-----7----7-|---7--------|X4
a|---5--------|--44--------|--9---------|------------|
E|------------|------------|------------|------------|

e|------------|------------|------------|------------|
b|------------|------------|------------|------------|
g|--------6---|--------6---|--------6---|-------6h7p6|
d|-----7----7-|-----7----7-|-----7----7-|-----7------|X4
a|---5--------|--44--------|------------|------------|
E|------------|------------|--77--------|--55--------|

e|------------|------------|------------|------------|
b|------------|------------|------------|-------5h7p5|
g|--------6---|--------6---|--------6---|-----6------|
d|-----7----7-|-----7----7-|-----7----7-|---7--------|X4
a|---5--------|--44--------|--9---------|------------|
E|------------|------------|------------|------------|



that's pretty much it. go to www.myspace.com/publicschoolrejects to hear it=]
Tap to rate this tab
# A B C D E F G H I J K L M N O P Q R S T U V W X Y Z