Song name
# A B C D E F G H I J K L M N O P Q R S T U V W X Y Z

Misc Unsigned Bands - Metalcaust - Waste Of A Life tab

E|--------------------------------------------------------------|
B|--------------------------------------------------------------|
G|--------------------------------------------------------------|
D|-0------------------------------------------------------------|
A|-0--------0-0-0-0-0-0-0---0-0-0-0-0-0-0--0-0-0--0-0-0-0-0-0-0-|
D|-0--------0-0-0-0-0-0-0---0-0-0-0-0-0-0--0-0-0--0-0-0-0-0-0-0-|

E|--------------------|
B|--------------------|
G|--------------------|
D|--------------------|
A|--------------------|
D|-0-3-1-0-4-3-1-6-5-3|

E|-----------------------------------------------------|
B|-----------------------------------------------------|
G|-----------------------------------------------------|
D|-----------------------------------------------------|
A|-0-0-0-0-0-0-0---0-0-0-0-0-0-0--0-0-0--0-0-0-0-0-0-0-|
D|-0-0-0-0-0-0-0---0-0-0-0-0-0-0--0-0-0--0-0-0-0-0-0-0-|

E|--------------------|
B|--------------------|
G|--------------------|
D|--------------------|
A|--------------------|
D|-0-3-1-0-4-3-1-6-5-3|

E|-----------------------------------------------------|
B|-----------------------------------------------------|
G|-----------------------------------------------------|
D|-----------------------------------------------------|
A|-0-0-0-0-0-0-0---0-0-0-0-0-0-0--0-0-0--0-0-0-0-0-0-0-|
D|-0-0-0-0-0-0-0---0-0-0-0-0-0-0--0-0-0--0-0-0-0-0-0-0-|

E|--------------------|
B|--------------------|
G|--------------------|
D|--------------------|
A|--------------------|
D|-0-3-1-0-4-3-1-6-5-3|

E|-----------------------------------------------------|
B|-----------------------------------------------------|
G|-----------------------------------------------------|
D|-----------------------------------------------------|
A|-0-0-0-0-0-0-0---0-0-0-0-0-0-0--0-0-0--0-0-0-0-0-0-0-|
D|-0-0-0-0-0-0-0---0-0-0-0-0-0-0--0-0-0--0-0-0-0-0-0-0-|

E|--------------------|
B|--------------------|
G|--------------------|
D|--------------------|
A|--------------------|
D|-0-3-1-0-4-3-1-6-5-3|

E|-------------------------------------------------|
B|-------------------------------------------------|
G|-------------------------------------------------|
D|-------------------------------------------------|
A|-------8-7-5-------6-5-3-------8-7-5-6-5-3-5-3-2-|
D|-0-0-0-------0-0-0-------0-0-0-------------------|

E|----------------------------------------------------|
B|----------------------------------------------------|
G|----------------------------------------------------|
D|----------------------------------------------------|
A|-------8-7-5-------6-5-3-------8-7-5-10-8-7-12-10-9-|
D|-0-0-0-------0-0-0-------0-0-0----------------------|

E|---------------------------------------------------|
B|---------------------------------------------------|
G|---------------------------------------------------|
D|---------------------------------------------------|
A|-------8-7-5-------6-5-3-------8-7-5-6-5-3-5-3-2---|
D|-0-0-0-------0-0-0-------0-0-0---------------------|

E|---------------------------------------------------|
B|---------------------------------------------------|
G|---------------------------------------------------|
D|---------------------------------------------------|
A|-------8-7-5-------6-5-3-------8-7-5-10-8-7--------|
D|-0-0-0-------0-0-0-------0-0-0--------------12/----|

E|---------------------------------------------------|
B|---------------------------------------------------|
G|---------------------------------------------------|
D|---------------------------------------------------|
A|-0----------0----------0---------------------------|
D|-0--0-8-7-5-0--0-6-5-3-0--0-8-7-5-6-5-3-5-3-2------|

E|---------------------------------------------------|
B|---------------------------------------------------|
G|---------------------------------------------------|
D|---------------------------------------------------|
A|-0----------0----------0---------------------------|
D|-0--0-8-7-5-0--0-6-5-3-0--0-8-7-5-10-8-7-12-10-9---|

E|---------------------------------------------------|
B|---------------------------------------------------|
G|---------------------------------------------------|
D|---------------------------------------------------|
A|-0----------0----------0---------------------------|
D|-0--0-8-7-5-0--0-6-5-3-0--0-8-7-5-6-5-3-5-3-2------|

E|---------------------------------------------------|
B|---------------------------------------------------|
G|---------------------------------------------------|
D|---------------------------------------------------|
A|-0----------0----------0---------------------------|
D|-0--0-8-7-5-0--0-6-5-3-0--0-8-7-5-10-8-7-12-10-9---|

E|-----------------------------------------------------|
B|-----------------------------------------------------|
G|-----------------------------------------------------|
D|-----------------------------------------------------|
A|-0-0-0-0-0-0-0---0-0-0-0-0-0-0--0-0-0--0-0-0-0-0-0-0-|
D|-0-0-0-0-0-0-0---0-0-0-0-0-0-0--0-0-0--0-0-0-0-0-0-0-|

E|--------------------|
B|--------------------|
G|--------------------|
D|--------------------|
A|--------------------|
D|-0-3-1-0-4-3-1-6-5-3|

E|-----------------------------------------------------|
B|-----------------------------------------------------|
G|-----------------------------------------------------|
D|-----------------------------------------------------|
A|-0-0-0-0-0-0-0---0-0-0-0-0-0-0--0-0-0--0-0-0-0-0-0-0-|
D|-0-0-0-0-0-0-0---0-0-0-0-0-0-0--0-0-0--0-0-0-0-0-0-0-|

E|--------------------|
B|--------------------|
G|--------------------|
D|--------------------|
A|--------------------|
D|-0-3-1-0-4-3-1-6-5-3|

E|-----------------------------------------------------|
B|-----------------------------------------------------|
G|-----------------------------------------------------|
D|-----------------------------------------------------|
A|-0-0-0-0-0-0-0---0-0-0-0-0-0-0--0-0-0--0-0-0-0-0-0-0-|
D|-0-0-0-0-0-0-0---0-0-0-0-0-0-0--0-0-0--0-0-0-0-0-0-0-|

E|--------------------|
B|--------------------|
G|--------------------|
D|--------------------|
A|--------------------|
D|-0-3-1-0-4-3-1-6-5-3|

E|-----------------------------------------------------|
B|-----------------------------------------------------|
G|-----------------------------------------------------|
D|-----------------------------------------------------|
A|-0-0-0-0-0-0-0---0-0-0-0-0-0-0--0-0-0--0-0-0-0-0-0-0-|
D|-0-0-0-0-0-0-0---0-0-0-0-0-0-0--0-0-0--0-0-0-0-0-0-0-|

E|--------------------|
B|--------------------|
G|--------------------|
D|--------------------|
A|--------------------|
D|-0-3-1-0-4-3-1-6-5-3|

E|-------------------------------------------------|
B|-------------------------------------------------|
G|-------------------------------------------------|
D|-------------------------------------------------|
A|-------8-7-5-------6-5-3-------8-7-5-6-5-3-5-3-2-|
D|-0-0-0-------0-0-0-------0-0-0-------------------|

E|----------------------------------------------------|
B|----------------------------------------------------|
G|----------------------------------------------------|
D|----------------------------------------------------|
A|-------8-7-5-------6-5-3-------8-7-5-10-8-7-12-10-9-|
D|-0-0-0-------0-0-0-------0-0-0----------------------|

E|-------------------------------------------------|
B|-------------------------------------------------|
G|-------------------------------------------------|
D|-------------------------------------------------|
A|-------8-7-5-------6-5-3-------8-7-5-6-5-3-5-3-2-|
D|-0-0-0-------0-0-0-------0-0-0-------------------|

E|---------------------------------------------------|
B|---------------------------------------------------|
G|---------------------------------------------------|
D|---------------------------------------------------|
A|-------8-7-5-------6-5-3-------8-7-5-10-8-7--------|
D|-0-0-0-------0-0-0-------0-0-0--------------12/----|

E|---------------------------------------------------|
B|---------------------------------------------------|
G|---------------------------------------------------|
D|---------------------------------------------------|
A|-0----------0----------0---------------------------|
D|-0--0-8-7-5-0--0-6-5-3-0--0-8-7-5-6-5-3-5-3-2------|

E|---------------------------------------------------|
B|---------------------------------------------------|
G|---------------------------------------------------|
D|---------------------------------------------------|
A|-0----------0----------0---------------------------|
D|-0--0-8-7-5-0--0-6-5-3-0--0-8-7-5-10-8-7-12-10-9---|

E|---------------------------------------------------|
B|---------------------------------------------------|
G|---------------------------------------------------|
D|---------------------------------------------------|
A|-0----------0----------0---------------------------|
D|-0--0-8-7-5-0--0-6-5-3-0--0-8-7-5-6-5-3-5-3-2------|

E|---------------------------------------------------|
B|---------------------------------------------------|
G|---------------------------------------------------|
D|---------------------------------------------------|
A|-0----------0----------0---------------------------|
D|-0--0-8-7-5-0--0-6-5-3-0--0-8-7-5-10-8-7-12-10-9---|

E|----------------------------------------|
B|----------------------------------------|
G|----------------------------------------|
D|----------------------------------------|
A|-0---1---0-1p0/4-3--0---1---0-1p0/6-5---|
D|-0---1---0-1p0/4-3--0---1---0-1p0/6-5---|

E|----------------------------------------|
B|----------------------------------------|
G|----------------------------------------|
D|----------------------------------------|
A|-0---1---0-1p0/4-3--0---1---0-1p0/6-5---|
D|-0---1---0-1p0/4-3--0---1---0-1p0/6-5---|

E|----------------------------------------|
B|----------------------------------------|
G|----------------------------------------|
D|----------------------------------------|
A|-0---1---0-1p0/4-3--0---1---0-1p0/6-5---|
D|-0---1---0-1p0/4-3--0---1---0-1p0/6-5---|

E|----------------------------------------|
B|----------------------------------------|
G|----------------------------------------|
D|----------------------------------------|
A|-0---1---0-1p0/4-3--0---1---0-1p0/6-5---|
D|-0---1---0-1p0/4-3--0---1---0-1p0/6-5---|

Solo
E|-12--12-12---12h15p12-----------------------------------------|
B|-15b-15b15b----------15-14------------------------------------|
G|--------------------------15-14-12----------------------------|
D|----------------------------------15-14-12/14-15-17-15-14-12~-|
A|--------------------------------------------------------------|
D|--------------------------------------------------------------|

E|-----------------------------------------15--15-18-15--|
B|--------------------------15--15-18-15-18--18----------|
G|----------15--15-17-15-17---17-------------------------|
D|-17-15-17---17-----------------------------------------|
A|-------------------------------------------------------|
D|-------------------------------------------------------|

E|20-19-17--17-19-----------------------------------------------|
B|--------19-----20-19-17--17-19--------------------------------|
G|-----------------------19-----20-19-17--17-19-----------------|
D|--------------------------------------19-----20-19-17--17-19--|
A|-----------------------------------------------------19-------|
D|--------------------------------------------------------------|

E|----------------------------------------------------------|
B|----------------------------------------------------------|
G|-------------------------------------------------13h14h16-|
D|----------------------------------------13h14h16----------|
A|-20-19-17--17-19---------------12h14h15-------------------|
D|---------21-----22~---14h16h17----------------------------|

E|-19-19-19-19-17-17-17-17-------------------------17-17-17-17-15-15-15-15-|
B|-------------------------18-18-18-18-17-17-17-17-------------------------|
G|-------------------------------------------------------------------------|
D|-------------------------------------------------------------------------|
A|-------------------------------------------------------------------------|
D|-------------------------------------------------------------------------|

E|-------------------------|
B|-16-16-16-16-15-15-15-15-|
G|-------------------------|
D|-------------------------|
A|-------------------------|
D|-------------------------|

E|15p14p12-15p14p12-15p14p12-15p14p12-17p15p14-17p15p14-17p15p14-17p15p14-|
B|------------------------------------------------------------------------|
G|------------------------------------------------------------------------|
D|------------------------------------------------------------------------|
A|------------------------------------------------------------------------|
D|------------------------------------------------------------------------|

E|19p17p15-19p17p15-21p19p17-21p19p17-22b--22b-22b-22b-22b-|
B|---------------------------------------------------------|
G|---------------------------------------------------------|
D|---------------------------------------------------------|
A|---------------------------------------------------------|
D|---------------------------------------------------------|

E|----------------------------------------|
B|----------------------------------------|
G|----------------------------------------|
D|----------------------------------------|
A|-0---1---0-1p0/4-3--0---1---0-1p0/6-5---|
D|-0---1---0-1p0/4-3--0---1---0-1p0/6-5---|

E|----------------------------------------|
B|----------------------------------------|
G|----------------------------------------|
D|----------------------------------------|
A|-0---1---0-1p0/4-3--0---1---0-1p0/6-5---|
D|-0---1---0-1p0/4-3--0---1---0-1p0/6-5---|

E|----------------------------------------|
B|----------------------------------------|
G|----------------------------------------|
D|----------------------------------------|
A|-0---1---0-1p0/4-3--0---1---0-1p0/6-5---|
D|-0---1---0-1p0/4-3--0---1---0-1p0/6-5---|

E|----------------------------------------|
B|----------------------------------------|
G|----------------------------------------|
D|----------------------------------------|
A|-0---1---0-1p0/4-3--0---1---0-1p0/6-5---|
D|-0---1---0-1p0/4-3--0---1---0-1p0/6-5---|

E|-----------------------------------------------------|
B|-----------------------------------------------------|
G|-----------------------------------------------------|
D|-----------------------------------------------------|
A|-0-0-0-0-0-0-0---0-0-0-0-0-0-0--0-0-0--0-0-0-0-0-0-0-|
D|-0-0-0-0-0-0-0---0-0-0-0-0-0-0--0-0-0--0-0-0-0-0-0-0-|

E|--------------------|
B|--------------------|
G|--------------------|
D|--------------------|
A|--------------------|
D|-0-3-1-0-4-3-1-6-5-3|

E|-----------------------------------------------------|
B|-----------------------------------------------------|
G|-----------------------------------------------------|
D|-----------------------------------------------------|
A|-0-0-0-0-0-0-0---0-0-0-0-0-0-0--0-0-0--0-0-0-0-0-0-0-|
D|-0-0-0-0-0-0-0---0-0-0-0-0-0-0--0-0-0--0-0-0-0-0-0-0-|

E|--------------------|
B|--------------------|
G|--------------------|
D|--------------------|
A|--------------------|
D|-0-3-1-0-4-3-1-6-5-3|

E|-----------------------------------------------------|
B|-----------------------------------------------------|
G|-----------------------------------------------------|
D|-----------------------------------------------------|
A|-0-0-0-0-0-0-0---0-0-0-0-0-0-0--0-0-0--0-0-0-0-0-0-0-|
D|-0-0-0-0-0-0-0---0-0-0-0-0-0-0--0-0-0--0-0-0-0-0-0-0-|

E|--------------------|
B|--------------------|
G|--------------------|
D|--------------------|
A|--------------------|
D|-0-3-1-0-4-3-1-6-5-3|

E|-----------------------------------------------------|
B|-----------------------------------------------------|
G|-----------------------------------------------------|
D|-----------------------------------------------------|
A|-0-0-0-0-0-0-0---0-0-0-0-0-0-0--0-0-0--0-0-0-0-0-0-0-|
D|-0-0-0-0-0-0-0---0-0-0-0-0-0-0--0-0-0--0-0-0-0-0-0-0-|

E|--------------------|
B|--------------------|
G|--------------------|
D|--------------------|
A|--------------------|
D|-0-3-1-0-4-3-1-6-5-3|

E|-------------------------------------------------|
B|-------------------------------------------------|
G|-------------------------------------------------|
D|-------------------------------------------------|
A|-------8-7-5-------6-5-3-------8-7-5-6-5-3-5-3-2-|
D|-0-0-0-------0-0-0-------0-0-0-------------------|

E|----------------------------------------------------|
B|----------------------------------------------------|
G|----------------------------------------------------|
D|----------------------------------------------------|
A|-------8-7-5-------6-5-3-------8-7-5-10-8-7-12-10-9-|
D|-0-0-0-------0-0-0-------0-0-0----------------------|

E|-------------------------------------------------|
B|-------------------------------------------------|
G|-------------------------------------------------|
D|-------------------------------------------------|
A|-------8-7-5-------6-5-3-------8-7-5-6-5-3-5-3-2-|
D|-0-0-0-------0-0-0-------0-0-0-------------------|

E|---------------------------------------------------|
B|---------------------------------------------------|
G|---------------------------------------------------|
D|---------------------------------------------------|
A|-------8-7-5-------6-5-3-------8-7-5-10-8-7--------|
D|-0-0-0-------0-0-0-------0-0-0--------------12/----|

E|---------------------------------------------------|
B|---------------------------------------------------|
G|---------------------------------------------------|
D|---------------------------------------------------|
A|-0----------0----------0---------------------------|
D|-0--0-8-7-5-0--0-6-5-3-0--0-8-7-5-6-5-3-5-3-2------|

E|---------------------------------------------------|
B|---------------------------------------------------|
G|---------------------------------------------------|
D|---------------------------------------------------|
A|-0----------0----------0---------------------------|
D|-0--0-8-7-5-0--0-6-5-3-0--0-8-7-5-10-8-7-12-10-9---|

E|---------------------------------------------------|
B|---------------------------------------------------|
G|---------------------------------------------------|
D|---------------------------------------------------|
A|-0----------0----------0---------------------------|
D|-0--0-8-7-5-0--0-6-5-3-0--0-8-7-5-6-5-3-5-3-2------|

E|---------------------------------------------------|
B|---------------------------------------------------|
G|---------------------------------------------------|
D|---------------------------------------------------|
A|-0----------0----------0-------------------------0-|
D|-0--0-8-7-5-0--0-6-5-3-0--0-8-7-5-10-8-7-12-10-9-0-|
Tap to rate this tab
 
# A B C D E F G H I J K L M N O P Q R S T U V W X Y Z