Guitaretab - guitar tabs
Song name
# A B C D E F G H I J K L M N O P Q R S T U V W X Y Z

Misc Unsigned Bands - Tryin 2 Reach - Forever Never tab

 Forever & Never                                 


                                                                   Tryin 2 Reach
Lead Guitar



     E  E  E  E  E  E  E  E     E  E  E  E  E  E  E  E   
E||--------------------------|--------------------------|
B||--------------------------|--------------------------|
G||--------6-----6-----6-----|--------7-----7-----7-----|
D||-----7-----7-----7-----7--|-----7-----7-----7-----7--|
A||--7-----------------------|--5-----------------------|
E||--5-----------------------|--5-----------------------|


  E  E  E  E  E  E  E  E     E  E  E  E  E  E  E  E   
--------------------------|--------------------------|
--------------------------|-----------------------3--|
--------6-----6-----6-----|--------1-----1-----1--4--|
-----7-----7-----7-----7--|-----2-----2-----2--------|
--7-----------------------|--2-----------------------|
--5-----------------------|--0-----------------------|


  E  E  E  E  E  E  E  E     E  E  E  E  E  E  E  E   
--------------------------|--------------------------|
--------------------------|--------------------------|
--6-----6-----6-----6-----|--------7-----7-----7-----|
-----7-----7-----7-----7--|-----7-----7-----7-----7--|
--7-----------------------|--5-----------------------|
--5-----------------------|--5-----------------------|


                                         ^                                    
  E  E  E  E  E  E  E  E     E  E  E  E  H           E  E  E  E  E  E  E  E   
--------------------------|-----------------------|--------------------------|
--------------------------|--------------0--------|--------------------------|
--------6-----6-----6-----|--------1-----1--------|--6-----6-----6-----6-----|
-----7-----7-----7-----7--|-----2-----2--2--------|--7-----7-----7-----7-----|
--7-----------------------|--2--------------------|-----7-----7-----7-----7--|
--5-----------------------|--0--------------------|-----5-----5-----5-----5--|


  E  E  E  E  E  E  E  E     E  E  E  E  E  E  E  E   
--------------------------|--------------------------|
--7-----7-----7-----7-----|--------------------------|
--7-----7-----7-----7-----|--6-----6-----6-----6-----|
-----7-----7-----7-----7--|--7-----7-----7-----7-----|
-----5-----5-----5-----5--|-----7-----7-----7-----7--|
--------------------------|-----5-----5-----5-----5--|


  E  E  E  E  E  E  E  E     E  E  E  E  E  E  E  E   
--------------------------|--------------------------|
-----------------------3--|--------------------------|
--1-----1-----1-----1--4--|--6-----6-----6-----6-----|
--2-----2-----2-----2-----|--7-----7-----7-----7-----|
-----2-----2-----2--------|-----7-----7-----7-----7--|
-----0-----0-----0--------|-----5-----5-----5-----5--|


                                                                    ^         
  E  E  E  E  E  E  E  E     E  E  E  E  E  E  E  E     E  E  E  E  H         
--------------------------|--------------------------|-----------------------|
--7-----7-----7-----7-----|--------------------------|--------------0--------|
--7-----7-----7-----7-----|--6-----6-----6-----6-----|--1-----1-----1--------|
-----7-----7-----7-----7--|--7-----7-----7-----7-----|--2-----2-----2--------|
-----5-----5-----5-----5--|-----7-----7-----7-----7--|-----2-----2-----------|
--------------------------|-----5-----5-----5-----5--|-----0-----0-----------|


  E  E  E  E  E  E  E  E     E  E  E  E  E  E  E  E   
--------------------------|--------------------------|
--------------------------|--------------------------|
--7-----7-----7-----7-----|--7-----7-----7-----7-----|
--7-----7-----7-----7-----|--7-----7-----7-----7-----|
-----5-----5-----5-----5--|-----5-----5-----5-----5--|
-----5-----5-----5-----5--|-----5-----5-----5-----5--|


  E  E  E  E  E  E  E  E     E  E  E  E  E  E  E  E   
--------------------------|--------------------------|
--------------------------|--------------------------|
--6-----6-----6-----6-----|--9-----9-----9-----9-----|
--7-----7-----7-----7-----|--9-----9-----9-----9-----|
-----7-----7-----7-----7--|-----7-----7-----7-----7--|
-----5-----5-----5-----5--|-----7-----7-----7-----7--|


  E  E  E  E  E  E  E  E     E  E  E  E  E  E  E  E   
--------------------------|--------------------------|
--------------------------|--------------------------|
--7-----7-----7-----7-----|--7-----7-----7-----7-----|
--7-----7-----7-----7-----|--7-----7-----7-----7-----|
-----5-----5-----5-----5--|-----5-----5-----5-----5--|
-----5-----5-----5-----5--|-----5-----5-----5-----5--|


  E  E  E  E  E  E  E  E     E  E  E  E  E  E  E   E   
--------------------------|---------------------------|
--------------------------|--------------9-----9--12--|
--6-----6-----6-----6-----|--9-----9-----9-----9---9--|
--7-----7-----7-----7-----|--9-----9--------9---------|
-----7-----7-----7-----7--|-----7-----7-----7---------|
-----5-----5-----5-----5--|-----7-----7---------------|


   E   E   E   E   E   E   E   E     E  E  E  E  E  E  E   E   
----------------------------------|---------------------------|
--14------14------14------14------|--9-----9-----9-----9--12--|
--14------14------14------14------|--9-----9-----9-----9---9--|
------14------14------14------14--|-----9-----9-----9---------|
------12------12------12------12--|-----7-----7-----7---------|
----------------------------------|---------------------------|


  E  E  E  E  E  E  E  E     E  E  E  E  E  E  E   E   
--------------------------|---------------------------|
--7-----7-----7-----7-----|--------------9-----9--12--|
--7-----7-----7-----7-----|--6-----6-----9-----9---9--|
-----7-----7-----7-----7--|--7-----7--------9---------|
-----5-----5-----5-----5--|-----7-----7-----7---------|
--------------------------|-----5-----5---------------|


   E   E   E   E   E   E   E   E     E  E  E  E  E  E  E   E   
----------------------------------|---------------------------|
--14------14------14------14------|--9-----9-----9-----9--12--|
--14------14------14------14------|--9-----9-----9-----9---9--|
------14------14------14------14--|-----9-----9-----9---------|
------12------12------12------12--|-----7-----7-----7---------|
----------------------------------|---------------------------|


                                         ^           ^                 
  E  E  E  E  E  E  E  E     E  E  E  E  H           W                 
--------------------------|-----------------------|-------------------|
--7-----7-----7-----7-----|--------------9--------|--L----------------|
--7-----7-----7-----7-----|--6-----6-----9--------|--L----------------|
-----7-----7-----7-----7--|--7-----7-----9--------|--L----------------|
-----5-----5-----5-----5--|-----7-----7--7--------|--L----------------|
--------------------------|-----5-----5-----------|-------------------|


  E  E  E  E  E  E  E  E     E  E  E  E  E  E  E  E   
--------------------------|--------------------------|
--------------------------|--------------------------|
--------6-----6-----6-----|--------7-----7-----7-----|
-----7-----7-----7-----7--|-----7-----7-----7-----7--|
--7-----------------------|--5-----------------------|
--5-----------------------|--5-----------------------|


  E  E  E  E  E  E  E  E     E  E  E  E  E  E  E  E   
--------------------------|--------------------------|
--------------------------|-----------------------3--|
--------6-----6-----6-----|--------1-----1-----1--4--|
-----7-----7-----7-----7--|-----2-----2-----2--------|
--7-----------------------|--2-----------------------|
--5-----------------------|--0-----------------------|


  E  E  E  E  E  E  E  E     E  E  E  E  E  E  E  E   
--------------------------|--------------------------|
--------------------------|--------------------------|
--6-----6-----6-----6-----|--------7-----7-----7-----|
-----7-----7-----7-----7--|-----7-----7-----7-----7--|
--7-----------------------|--5-----------------------|
--5-----------------------|--5-----------------------|


  E  E  E  E  E  E  E  E     E  E  E  E  E  E  E  E   
--------------------------|--------------------------|
--------------------------|--------------------------|
--------6-----6-----6-----|--------1-----1-----1-----|
-----7-----7-----7-----7--|-----2-----2-----2-----2--|
--7-----------------------|--2-----------------------|
--5-----------------------|--0-----------------------|


  E  E  E  E  E  E  E  E     E  E  E  E  E  E  E  E   
--------------------------|--------------------------|
--------------------------|--7-----7-----7-----7-----|
--6-----6-----6-----6-----|--7-----7-----7-----7-----|
--7-----7-----7-----7-----|-----7-----7-----7-----7--|
-----7-----7-----7-----7--|-----5-----5-----5-----5--|
-----5-----5-----5-----5--|--------------------------|


  E  E  E  E  E  E  E  E     E  E  E  E  E  E  E  E   
--------------------------|--------------------------|
--------------------------|-----------------------3--|
--6-----6-----6-----6-----|--1-----1-----1-----1--4--|
--7-----7-----7-----7-----|--2-----2-----2-----2-----|
-----7-----7-----7-----7--|-----2-----2-----2--------|
-----5-----5-----5-----5--|-----0-----0-----0--------|


  E  E  E  E  E  E  E  E     E  E  E  E  E  E  E  E   
--------------------------|--------------------------|
--------------------------|--7-----7-----7-----7-----|
--6-----6-----6-----6-----|--7-----7-----7-----7-----|
--7-----7-----7-----7-----|-----7-----7-----7-----7--|
-----7-----7-----7-----7--|-----5-----5-----5-----5--|
-----5-----5-----5-----5--|--------------------------|


                                         ^                                    
  E  E  E  E  E  E  E  E     E  E  E  E  H           E  E  E  E  E  E  E  E   
--------------------------|-----------------------|--------------------------|
--------------------------|--------------0--------|--------------------------|
--6-----6-----6-----6-----|--1-----1-----1--------|--7-----7-----7-----7-----|
--7-----7-----7-----7-----|--2-----2-----2--------|--7-----7-----7-----7-----|
-----7-----7-----7-----7--|-----2-----2-----------|-----5-----5-----5-----5--|
-----5-----5-----5-----5--|-----0-----0-----------|-----5-----5-----5-----5--|


  E  E  E  E  E  E  E  E     E  E  E  E  E  E  E  E   
--------------------------|--------------------------|
--------------------------|--------------------------|
--7-----7-----7-----7-----|--6-----6-----6-----6-----|
--7-----7-----7-----7-----|--7-----7-----7-----7-----|
-----5-----5-----5-----5--|-----7-----7-----7-----7--|
-----5-----5-----5-----5--|-----5-----5-----5-----5--|


  E  E  E  E  E  E  E  E     E  E  E  E  E  E  E  E   
--------------------------|--------------------------|
--------------------------|--------------------------|
--9-----9-----9-----9-----|--7-----7-----7-----7-----|
--9-----9-----9-----9-----|--7-----7-----7-----7-----|
-----7-----7-----7-----7--|-----5-----5-----5-----5--|
-----7-----7-----7-----7--|-----5-----5-----5-----5--|


  E  E  E  E  E  E  E  E     E  E  E  E  E  E  E  E   
--------------------------|--------------------------|
--------------------------|--------------------------|
--7-----7-----7-----7-----|--6-----6-----6-----6-----|
--7-----7-----7-----7-----|--7-----7-----7-----7-----|
-----5-----5-----5-----5--|-----7-----7-----7-----7--|
-----5-----5-----5-----5--|-----5-----5-----5-----5--|


  E  E  E  E  E  E  E   E      E   E   E   E   E   E   E   E   
---------------------------|----------------------------------|
--------------9-----9--12--|--14------14------14------14------|
--9-----9-----9-----9---9--|--14------14------14------14------|
--9-----9--------9---------|------14------14------14------14--|
-----7-----7-----7---------|------12------12------12------12--|
-----7-----7---------------|----------------------------------|

[ Tab from: http://www.guitaretab.com/m/misc-unsigned-bands/95619.html ]
  E  E  E  E  E  E  E   E     E  E  E  E  E  E  E  E   
---------------------------|--------------------------|
--9-----9-----9-----9--12--|--7-----7-----7-----7-----|
--9-----9-----9-----9---9--|--7-----7-----7-----7-----|
-----9-----9-----9---------|-----7-----7-----7-----7--|
-----7-----7-----7---------|-----5-----5-----5-----5--|
---------------------------|--------------------------|


  E  E  E  E  E  E  E   E      E   E   E   E   E   E   E   E   
---------------------------|----------------------------------|
--------------9-----9--12--|--14------14------14------14------|
--6-----6-----9-----9---9--|--14------14------14------14------|
--7-----7--------9---------|------14------14------14------14--|
-----7-----7-----7---------|------12------12------12------12--|
-----5-----5---------------|----------------------------------|


                                                                     ^         
  E  E  E  E  E  E  E   E     E  E  E  E  E  E  E  E     E  E  E  E  H         
---------------------------|--------------------------|-----------------------|
--9-----9-----9-----9--12--|--7-----7-----7-----7-----|--------------9--------|
--9-----9-----9-----9---9--|--7-----7-----7-----7-----|--6-----6-----9--------|
-----9-----9-----9---------|-----7-----7-----7-----7--|--7-----7-----9--------|
-----7-----7-----7---------|-----5-----5-----5-----5--|-----7-----7--7--------|
---------------------------|--------------------------|-----5-----5-----------|


  E  E  E  E  E  E  E  E     E  E  E  E  E  E  E  E   
--------------------------|--------------------------|
--------------------------|--------------------------|
--------------------------|--6--7--7--7--7--7--7--7--|
--7--7--7--7--7--7--7--7--|--6--7--7--7--7--7--7--7--|
--7--7--7--7--7--7--7--7--|--4--5--5--5--5--5--5--5--|
--5--5--5--5--5--5--5--5--|--------------------------|


  E  E  E  E  E  E  E  E     E  E  E  E  E  E  E  E   
--------------------------|--------------------------|
--------------------------|--------------------------|
--------------------------|--6--6--6--6--4--4--4--4--|
--7--7--7--7--7--7--7--7--|--6--6--6--6--4--4--4--4--|
--7--7--7--7--7--7--7--7--|--4--4--4--4--2--2--2--2--|
--5--5--5--5--5--5--5--5--|--------------------------|


  E  E  E  E  E  E  E  E     E  E  E  E  E  E  E  E   
--------------------------|--------------------------|
--------------------------|--------------------------|
--------------------------|--6--7--7--7--7--7--7--7--|
--7--7--7--7--7--7--7--7--|--6--7--7--7--7--7--7--7--|
--7--7--7--7--7--7--7--7--|--4--5--5--5--5--5--5--5--|
--5--5--5--5--5--5--5--5--|--------------------------|


  E  E  E  E  E  E  E  E     E  E  E  E   E   E   E   E   
--------------------------|------------------------------|
--------------------------|------------------------------|
--------------------------|--------------12--12--12--12--|
--7--7--7--7--7--7--7--7--|--7--7--7--7--12--12--12--12--|
--7--7--7--7--7--7--7--7--|--7--7--7--7--10--10--10--10--|
--5--5--5--5--5--5--5--5--|--5--5--5--5------------------|


  E  E  E  E  E  E  E  E     E  E  E  E  E  E  E  E   
--------------------------|--------------------------|
--------------------------|--------------------------|
--7-----7-----7-----7-----|--7-----7-----7-----7-----|
--7-----7-----7-----7-----|--7-----7-----7-----7-----|
-----5-----5-----5-----5--|-----5-----5-----5-----5--|
-----5-----5-----5-----5--|-----5-----5-----5-----5--|


  E  E  E  E  E  E  E  E     E  E  E  E  E  E  E  E   
--------------------------|--------------------------|
--------------------------|--------------------------|
--6-----6-----6-----6-----|--9-----9-----9-----9-----|
--7-----7-----7-----7-----|--9-----9-----9-----9-----|
-----7-----7-----7-----7--|-----7-----7-----7-----7--|
-----5-----5-----5-----5--|-----7-----7-----7-----7--|


  E  E  E  E  E  E  E  E     E  E  E  E  E  E  E  E   
--------------------------|--------------------------|
--------------------------|--------------------------|
--7-----7-----7-----7-----|--7-----7-----7-----7-----|
--7-----7-----7-----7-----|--7-----7-----7-----7-----|
-----5-----5-----5-----5--|-----5-----5-----5-----5--|
-----5-----5-----5-----5--|-----5-----5-----5-----5--|


  E  E  E  E  E  E  E  E     E  E  E  E  E  E  E   E     W                  
--------------------------|---------------------------|--------------------|
--------------------------|--------------9-----9--12--|--9~----------------|
--6-----6-----6-----6-----|--9-----9-----9-----9---9--|--9~----------------|
--7-----7-----7-----7-----|--9-----9--------9---------|--9~----------------|
-----7-----7-----7-----7--|-----7-----7-----7---------|--7~----------------|
-----5-----5-----5-----5--|-----7-----7---------------|--------------------|


  W                    E   E   E   E   E   E   E   E   
-------------------|----------------------------------|
--L----------------|--14------14------14------14------|
--L----------------|--14------14------14------14------|
--L----------------|------14------14------14------14--|
--L----------------|------12------12------12------12--|
-------------------|----------------------------------|


  E  E  E  E  E  E  E   E     E  E  E  E  E  E  E  E   
---------------------------|--------------------------|
--9-----9-----9-----9--12--|--7-----7-----7-----7-----|
--9-----9-----9-----9---9--|--7-----7-----7-----7-----|
-----9-----9-----9---------|-----7-----7-----7-----7--|
-----7-----7-----7---------|-----5-----5-----5-----5--|
---------------------------|--------------------------|


  E  E  E  E  E  E  E   E      E   E   E   E   E   E   E   E   
---------------------------|----------------------------------|
--------------9-----9--12--|--14------14------14------14------|
--6-----6-----9-----9---9--|--14------14------14------14------|
--7-----7--------9---------|------14------14------14------14--|
-----7-----7-----7---------|------12------12------12------12--|
-----5-----5---------------|----------------------------------|


                                                                     ^         
  E  E  E  E  E  E  E   E     E  E  E  E  E  E  E  E     E  E  E  E  H         
---------------------------|--------------------------|-----------------------|
--9-----9-----9-----9--12--|--7-----7-----7-----7-----|--------------9--------|
--9-----9-----9-----9---9--|--7-----7-----7-----7-----|--6-----6-----9--------|
-----9-----9-----9---------|-----7-----7-----7-----7--|--7-----7-----9--------|
-----7-----7-----7---------|-----5-----5-----5-----5--|-----7-----7--7--------|
---------------------------|--------------------------|-----5-----5-----------|


   E   E   E   E   E   E   E   E     E  E  E  E  E  E  E   E   
----------------------------------|---------------------------|
--14------14------14------14------|--9-----9-----9-----9--12--|
--14------14------14------14------|--9-----9-----9-----9---9--|
------14------14------14------14--|-----9-----9-----9---------|
------12------12------12------12--|-----7-----7-----7---------|
----------------------------------|---------------------------|


  E  E  E  E  E  E  E  E     E  E  E  E  E  E  E   E   
--------------------------|---------------------------|
--7-----7-----7-----7-----|--------------9-----9--12--|
--7-----7-----7-----7-----|--6-----6-----9-----9---9--|
-----7-----7-----7-----7--|--7-----7--------9---------|
-----5-----5-----5-----5--|-----7-----7-----7---------|
--------------------------|-----5-----5---------------|


   E   E   E   E   E   E   E   E     E  E  E  E  E  E  E   E   
----------------------------------|---------------------------|
--14------14------14------14------|--9-----9-----9-----9--12--|
--14------14------14------14------|--9-----9-----9-----9---9--|
------14------14------14------14--|-----9-----9-----9---------|
------12------12------12------12--|-----7-----7-----7---------|
----------------------------------|---------------------------|


  E  E  E  E  E  E  E  E     E  E  E  E  E  E  E   E   
--------------------------|---------------------------|
--7-----7-----7-----7-----|--------------9-----9--12--|
--7-----7-----7-----7-----|--6-----6-----9-----9---9--|
-----7-----7-----7-----7--|--7-----7--------9---------|
-----5-----5-----5-----5--|-----7-----7-----7---------|
--------------------------|-----5-----5---------------|


                                                        ^                  
  E  E  E  E  E  E  E  E     E  E  E  E  E  E  E  E     W                  
--------------------------|--------------------------|--------------------|
--7-----7-----7-----7-----|--------------------------|--7~----------------|
--7-----7-----7-----7-----|--6-----6-----6-----6-----|--7~----------------|
-----7-----7-----7-----7--|--7-----7-----7-----7-----|--7~----------------|
-----5-----5-----5-----5--|-----7-----7-----7-----7--|--5-----------------|
--------------------------|-----5-----5-----5-----5--|--------------------|


  W                   E  E  E  E  E  E  E  E     E  E  E  E  E  E  E  E   
-------------------|--------------------------|--------------------------|
--L----------------|--------------------------|--------------------------|
--L----------------|--------6-----6-----6-----|--------7-----7-----7-----|
--L----------------|-----7-----7-----7-----7--|-----7-----7-----7-----7--|
--L----------------|--7-----------------------|--5-----------------------|
-------------------|--5-----------------------|--5-----------------------|


  E  E  E  E  E  E  E  E     E  E  E  E  E  E  E  E   
--------------------------|--------------------------|
--------------------------|-----------------------3--|
--------6-----6-----6-----|--------1-----1-----1--4--|
-----7-----7-----7-----7--|-----2-----2-----2--------|
--7-----------------------|--2-----------------------|
--5-----------------------|--0-----------------------|


  E  E  E  E  E  E  E  E     E  E  E  E  E  E  E  E   
--------------------------|--------------------------|
--------------------------|--------------------------|
--6-----6-----6-----6-----|--------7-----7-----7-----|
-----7-----7-----7-----7--|-----7-----7-----7-----7--|
--7-----------------------|--5-----------------------|
--5-----------------------|--5-----------------------|


                                                        ^                  
  E  E  E  E  E  E  E  E     E  E  E  E  E  E  E  E     W                  
--------------------------|--------------------------|--------------------|
--------------------------|--------------------------|--------------------|
--------6-----6-----6-----|--------1-----1-----1-----|--6~----------------|
-----7-----7-----7-----7--|-----2-----2-----2-----2--|--7~----------------|
--7-----------------------|--2-----------------------|--7~----------------|
--5-----------------------|--0-----------------------|--5~----------------|


  W                  
-------------------||
-------------------||
--L----------------||
--L----------------||
--L----------------||
--L----------------||




Duration Legend
---------------
W - whole
H - half
Q - quarter
E - 8th
S - 16th
T - 32nd
X - 64th
. - note dotted
|-n-|  - n-tuplets


Tablature Legend
----------------
L - tied note
x - dead note
g - grace note
(n) - ghost note
> - accentuded note
NH - natural harmonic
AH - artificial harmonic
TH - tapped harmonic
SH - semi harmonic
PH - pitch harmonic
h - hammer on
p - pull off
b - bend
br - bendRelease
pb - preBend
pbr - preBendRelease
brb - bendReleaseBend
\n/ - tremolo bar dip
\n - tremolo bar dive
-/n - tremolo bar Release up
/n\ - tremolo bar inverted dip
/n - tremolo bar return
-\n - tremolo bar Release down
S - shift slide
s - legato slide
/ -  slide into from below or out of upwards
\ -  slide into from above or out of downwards
~ - vibrato
W - wide vibrato
tr - trill
TP - tremolo picking
T - tapping
S - slap
P - pop
< - fade in
^ - brush up
v - brush down
Related for Tryin 2 Reach - Forever Never tab
Advertisement will be closed in 10 seconds