Song name
# A B C D E F G H I J K L M N O P Q R S T U V W X Y Z

Misc Unsigned Bands - State Executioner - Blindsided tab

_= hold


e|-------------------------------|
b|-------------------------------|
g|-------------------------------|
d|-------------------------------|
a|1-1-1-2-4-3--------------------|
d|1-1-1-2-4-3--------------------|x7
(after 2)blind---sided---by a----| rapist
eat your chicken pee pee pee----youuuu
e|------------------|
b|------------------|
g|------------------|
d|5-5----5-5-4-4-5-5|
a|5-5----5-5-4-4-5-5|
d|5-5----5-5-4-4-5-5|

e|------------------|
b|------------------|
g|------------------|
d|5___5-4-5_________|
a|5___5-4-5_________|
d|5___5-4-5_________|x3
Tap to rate this tab
# A B C D E F G H I J K L M N O P Q R S T U V W X Y Z