Song name
# A B C D E F G H I J K L M N O P Q R S T U V W X Y Z

Misc Unsigned Bands - Revizios Mozgalom - Delvidek Indulo tab

Delvidek Indulo
written by "HateCrew: The Haters" - z3r0
write date "13.05.2007."
special thanks and greetings to "Tim0n"

.-
|intro:

E----------------------------------------------------|
B----------------------------------------------------|
G-7----4----9--------------4----9---------7----------|
D-7----4----7----7----4----4----7----7----5----------|
A-5----2----7----7----4----2----7----5----5----------|
E----------------5----2--------------5---------------|

.-
|music starts 1x

E---------------------------------------------------------------------------------------------------|
B---------------------------------------------------------------------------------------------------|
G-5-5-0-9-7-5-4-2----7-7-2-11-9-6-5-3----9-4-13-11-9-8-6-4----2-10-9-7-5-0-2-4-5-5-4-5-4-5----------|
D---------------------------------------------------------------------------------------------------|
A---------------------------------------------------------------------------------------------------|
E---------------------------------------------------------------------------------------------------|

.-
|szabadka, zombor, ujvidek...

E------------------------------------------------------------------------------------------------------|
B------------------------------------------------------------------------------------------------------|
G----7---7------4---4------9---9----------------------------4---4------9---9-----------------7-----7---|
D----7---7------4---4------9---9------7---7------4---4------4---4------9---9------7---7------7-----7---|
A--5-5-5-5----2-2-2-2----7-7-7-7------7---7------4---4----2-2-2-2----7-7-7-7------7---7----5-5-5-5-5---|
E-----------------------------------5-5-5-5----2-2-2-2--------------------------5-5-5-5----------------|

E------------------------------------------------------------------------------------------------------|
B------------------------------------------------------------------------------------------------------|
G-5-5-0-9-7-5-4-2----7-7-2-11-9-6-5-3----9-4-13-11-9-8-6-4----2-10-9-7-5-0-2-4-5-5-4-5-4-5-------------|
D------------------------------------------------------------------------------------------------------|
A------------------------------------------------------------------------------------------------------|
E------------------------------------------------------------------------------------------------------|

.-
|ujhajnal fenye virrad rank...


E------------------------------------------------------------------------------------------------------|
B------------------------------------------------------------------------------------------------------|
G----7---7------4---4------9---9----------------------------4---4------9---9-----------------7-----7---|
D----7---7------4---4------9---9------7---7------4---4------4---4------9---9------7---7------7-----7---|
A--5-5-5-5----2-2-2-2----7-7-7-7------7---7------4---4----2-2-2-2----7-7-7-7------7---7----5-5-5-5-5---|
E-----------------------------------5-5-5-5----2-2-2-2--------------------------5-5-5-5----------------|

E------------------------------------------------------------------------------------------------------|
B------------------------------------------------------------------------------------------------------|
G-5-5-0-9-7-5-4-2----7-7-2-11-9-6-5-3----9-4-13-11-9-8-6-4----2-10-9-7-5-0-2-4-5-5-4-5-4-5-------------|
D------------------------------------------------------------------------------------------------------|
A------------------------------------------------------------------------------------------------------|
E------------------------------------------------------------------------------------------------------|

.-
|szabadka, zombor, ujvidek...


E------------------------------------------------------------------------------------------------------|
B------------------------------------------------------------------------------------------------------|
G----7---7------4---4------9---9----------------------------4---4------9---9-----------------7-----7---|
D----7---7------4---4------9---9------7---7------4---4------4---4------9---9------7---7------7-----7---|
A--5-5-5-5----2-2-2-2----7-7-7-7------7---7------4---4----2-2-2-2----7-7-7-7------7---7----5-5-5-5-5---|
E-----------------------------------5-5-5-5----2-2-2-2--------------------------5-5-5-5----------------|

E------------------------------------------------------------------------------------------------------|
B------------------------------------------------------------------------------------------------------|
G-5-5-0-9-7-5-4-2----7-7-2-11-9-6-5-3----9-4-13-11-9-8-6-4----2-10-9-7-5-0-2-4-5-5-4-5-4-5-------------|
D------------------------------------------------------------------------------------------------------|
A------------------------------------------------------------------------------------------------------|
E------------------------------------------------------------------------------------------------------|

.-
|ujhajnal fenye virrad rank...

E------------------------------------------------------------------------------------------------------|
B------------------------------------------------------------------------------------------------------|
G----7---7------4---4------9---9----------------------------4---4------9---9-----------------7-----7---|
D----7---7------4---4------9---9------7---7------4---4------4---4------9---9------7---7------7-----7---|
A--5-5-5-5----2-2-2-2----7-7-7-7------7---7------4---4----2-2-2-2----7-7-7-7------7---7----5-5-5-5-5---|
E-----------------------------------5-5-5-5----2-2-2-2--------------------------5-5-5-5----------------|

comments: redler.tamas@gmail.com
Tap to rate this tab
 
# A B C D E F G H I J K L M N O P Q R S T U V W X Y Z