Song name
# A B C D E F G H I J K L M N O P Q R S T U V W X Y Z

Misc Unsigned Bands - Quick Kill Lucy - We All Need Help tab

INTRO 
Guitat 1

e|-------------------------------------------------------------------------|
B|-------------------------------------------------------------------------|
G|-------------------------------------------------------------------------|
D|------9----------------12--------------5--------------7------------------|
A|--------9-----------------12--------------5--------------7---------------|
E|-7777-----7---10101010-------10---3333------3---5555-------5-------------|

                               x4
Guitar 2

e|-------------------------------------------------------------------------|
B|-------------------------------------------------------------------------|
G|-------------------------------------------------------------------------|
D|-9-999999999999-10-101010101010101010101010-5-555555555555-9-999999999999|
A|-9-999999999999-10-101010101010101010101010-5-555555555555-9-999999999999|
E|-7-777777777777-12-121212121212121212121212-3-333333333333-7-777777777777|
     ************    ************************   ************   ************
          PM                    PM                  PM              PM
                                  
                                     X2
                               
Verse1
Guitar 1

e|-------------------------------------------------------------------------|
B|-------------------------------------------------------------------------|
G|-------------------------------------------------------------------------|
D|-99999999--1010101010101010--55555555--99999999--------------------------|
A|-99999999--1010101010101010--55555555--99999999--------------------------|
E|-77777777--1212121212121212--33333333--77777777--------------------------|


                                   X2         
     
e|-------------------------------------------------------------------------|
B|-------------------------------------------------------------------------|
G|-------------------------------------------------------------------------|
D|-9----------10----------5----------9-------------------------------------|
A|-9----------10----------5----------9-------------------------------------|
E|-7----------12----------3----------7-------------------------------------|
                      
                                  
                                   X2
Guitar 2
                                
e|-------------------------------------------------------------------------|
B|-------------------------------------------------------------------------|
G|-------------------------------------------------------------------------|
D|-9-999999999999-10-101010101010101010101010-5-555555555555-9-999999999999|
A|-9-999999999999-10-101010101010101010101010-5-555555555555-9-999999999999|
E|-7-777777777777-12-121212121212121212121212-3-333333333333-7-777777777777|
     ************    ************************   ************   ************
          PM                    PM                  PM              PM
                                  
                                     X4

Chorus
Guitar 1 & 2

e|-------------------------------------------------------------------------|
B|-------------------------------------------------------------------------|
G|---------------------77777777--------------------------------------------|
D|-99999999--55555555--77777777--77777777----------------------------------|
A|-99999999--55555555--55555555--77777777----------------------------------|
E|-77777777--33333333------------55555555----------------------------------|

                                    X3

Verse2
Guitar 1

e|-------------------------------------------------------------------------|
B|-------------------------------------------------------------------------|
G|-------------------------------------------------------------------------|
D|-99999999--1010101010101010--55555555--99999999--------------------------|
A|-99999999--1010101010101010--55555555--99999999--------------------------|
E|-77777777--1212121212121212--33333333--77777777--------------------------|


                                   X2         
     
e|-------------------------------------------------------------------------|
B|-------------------------------------------------------------------------|
G|-------------------------------------------------------------------------|
D|-9----------10----------5----------9-------------------------------------|
A|-9----------10----------5----------9-------------------------------------|
E|-7----------12----------3----------7-------------------------------------|
                      
                                  
                                   X2
Guitar 2
                                
e|-------------------------------------------------------------------------|
B|-------------------------------------------------------------------------|
G|-------------------------------------------------------------------------|
D|-9-999999999999-10-101010101010101010101010-5-555555555555-9-999999999999|
A|-9-999999999999-10-101010101010101010101010-5-555555555555-9-999999999999|
E|-7-777777777777-12-121212121212121212121212-3-333333333333-7-777777777777|
     ************    ************************   ************   ************
          PM                    PM                  PM              PM
                                  
                                     X4

Chorus
Guitar 1 & 2

e|-------------------------------------------------------------------------|
B|-------------------------------------------------------------------------|
G|---------------------77777777--------------------------------------------|
D|-99999999--55555555--77777777--77777777----------------------------------|
A|-99999999--55555555--55555555--77777777----------------------------------|
E|-77777777--33333333------------55555555----------------------------------|

                                    X3

Verse 3
Guitar 1

e|-------------------------------------------------------------------------|
B|-------------------------------------------------------------------------|
G|-------------------------------------------------------------------------|
D|-------------------------------------------------------------------------|
A|--7777-9999-10101010-12121212-3333-5555-5555-7777------------------------|
E|-------------------------------------------------------------------------|

                                    X2

Guitar 2
                                
e|-------------------------------------------------------------------------|
B|-------------------------------------------------------------------------|
G|-------------------------------------------------------------------------|
D|-9-999999999999-10-101010101010101010101010-5-555555555555-9-999999999999|
A|-9-999999999999-10-101010101010101010101010-5-555555555555-9-999999999999|
E|-7-777777777777-12-121212121212121212121212-3-333333333333-7-777777777777|
     ************    ************************   ************   ************
          PM                    PM                  PM              PM
                                  
                                     X2

Chorus
Guitar 1 & 2

e|-------------------------------------------------------------------------|
B|-------------------------------------------------------------------------|
G|---------------------77777777--------------------------------------------|
D|-99999999--55555555--77777777--77777777----------------------------------|
A|-99999999--55555555--55555555--77777777----------------------------------|
E|-77777777--33333333------------55555555----------------------------------|

                                    X3

Tap to rate this tab
# A B C D E F G H I J K L M N O P Q R S T U V W X Y Z