Song name
# A B C D E F G H I J K L M N O P Q R S T U V W X Y Z

Misc Unsigned Bands - Nowhere Usa - Snitches Get Stiches tab

Nowhere USA
Demo
Snitches Get Stitches

Intro/Verse:
-------------------------------------------------------------------|
-------------------------------------------------------------------|
-----------3-3-3-----------------------------------9-9-9---9-9-9---|
---5-5-5---3-3-3---2-2-2---2-2-2---5-5-5---8-8-8---9-9-9---9-9-9---|
---5-5-5---1-1-1---2-2-2---2-2-2---5-5-5---8-8-8---7-7-7---7-7-7---| x5
---3-3-3-----------0-0-0---0-0-0---3-3-3---6-6-6-------------------|


Chorus:
---------------------------------------------------|
---------------------------------------------------|
---------------------------------------------------|
---5-----------8-----------5-----------210---------|
---5-----------8-----------5--------------210------| x2
---3-0-0-0-0-0-6-0-0-0-0-0-3-0-0-0-0-0--------3~---|


Bridge #1:
---------------------------------------------------|
---------------------------------------------------|
---------------------------------------------------|
---5-----x-----8-----x-----5-----x-----210---------|
---5-----x-----8-----x-----5-----x--------210------| x4
---3-0-0-x-----6-0-0-x-----3-0-0-x------------3~---|


Bridge #2:
---------------------------------------------|
---------------------------------------------|
---------------------------------------------|
---2-------8-------7-------5---8-8-8-7-5-2---|
---2-------8-------7-------5---8-8-8-7-5-2---| x4
---0-------6-------5-------3---6-6-6-5-3-0---|
Tap to rate this tab
# A B C D E F G H I J K L M N O P Q R S T U V W X Y Z