Song name
# A B C D E F G H I J K L M N O P Q R S T U V W X Y Z

Misc Unsigned Bands - Kraze - Yeah tab

Intro

\-------------------------------------------------------------------/
\-------4--------------4---------------4------------4--------------/
\-------5--------------6---------------5------------6--------------/
\-----3-3------------3-3-------------3-3----------3-3--------------/ x4
\-----0--------------0---------------0------------0----------------/
\------------------------------------------------------------------/


Chorus

\---------------------------------------------------------------------/
\---------------------------------------------------------------------/
\------------99999999999-999999999999-777777777777-3-9999999999999----/
\------------77777777777-777777777777-777777777777-5-7777777777777----/ x4
\---------------------------------------------------------------------/
\---------------------------------------------------------------------/

and that's about it
Tap to rate this tab
# A B C D E F G H I J K L M N O P Q R S T U V W X Y Z