Song name
# A B C D E F G H I J K L M N O P Q R S T U V W X Y Z

Misc Unsigned Bands - Quick Kill Lucy - Never Know A Good Thing Til Its Gone tab

Verse 1

e|-------------------------------------------------------------------------|
B|-------------------------------------------------------------------------|
G|-------------------------------------55555555----------------------------|
D|-77777777----------33333333----------55555555----------55555555----------|
A|-77777777----------33333333----------33333333----------55555555----------|
E|-55555555----------11111111----------------------------33333333----------|

                               X2

e|-------------------------------------------------------------------------|
B|-------------------------------------------------------------------------|
G|-------------------------------------55555555----------------------------|
D|-77777777----------33333333----------55555555----------55555555----------|
A|-77777777----------33333333----------33333333----------55555555----------|
E|-55555555----------11111111----------------------------33333333----------|
   ********          ********          ********          ********

                               X8

Chorus

e|-------------------------------------------------------------------------|
B|-------------------------------------------------------------------------|
G|-------------------------------------1010101010101010-----77777777-------|
D|-77777777------1010101010101010------1010101010101010-----77777777-------|
A|-77777777------1010101010101010------8-8-8-8-8-8-8-8------55555555-------|
E|-55555555------8-8-8-8-8-8-8-8-------------------------------------------|

                               X4

Verse 2

e|-------------------------------------------------------------------------|
B|-------------------------------------------------------------------------|
G|-------------------------------------55555555----------------------------|
D|-77777777----------33333333----------55555555----------55555555----------|
A|-77777777----------33333333----------33333333----------55555555----------|
E|-55555555----------11111111----------------------------33333333----------|

                               X2

e|-------------------------------------------------------------------------|
B|-------------------------------------------------------------------------|
G|-------------------------------------55555555----------------------------|
D|-77777777----------33333333----------55555555----------55555555----------|
A|-77777777----------33333333----------33333333----------55555555----------|
E|-55555555----------11111111----------------------------33333333----------|
   ********          ********          ********          ********

                               X7

e|-------------------------------------------------------------------------|
B|-------------------------------------------------------------------------|
G|-------------------------------------5-----------------------------------|
D|-77777777----------33333333----------5-----------------5-----------------|
A|-77777777----------33333333----------3-----------------5-----------------|
E|-55555555----------11111111----------------------------3-----------------|
   ********          ******** 

  Chorus

e|-------------------------------------------------------------------------|
B|-------------------------------------------------------------------------|
G|-------------------------------------1010101010101010-----77777777-------|
D|-77777777------1010101010101010------1010101010101010-----77777777-------|
A|-77777777------1010101010101010------8-8-8-8-8-8-8-8------55555555-------|
E|-55555555------8-8-8-8-8-8-8-8-------------------------------------------|

                               X4

Solo

Chorus

e|-------------------------------------------------------------------------|
B|-------------------------------------------------------------------------|
G|-------------------------------------1010101010101010-----77777777-------|
D|-77777777------1010101010101010------1010101010101010-----77777777-------|
A|-77777777------1010101010101010------8-8-8-8-8-8-8-8------55555555-------|
E|-55555555------8-8-8-8-8-8-8-8-------------------------------------------|

                               X8

                 
VERSE 1

3 months ago feels like yesterday
and i dont understand the words im about to say
I blame myself for everything
all im thinking about is how good it could have been

What could have done for you
And in return you woul have done it too
Nothing now feels like its real
And not a single word would tell you how i feel

CHORUS

You never know a good thing til its gone
NEVER KNOW
You never know a good thing til its gone

You never know a good thing til its gone
NEVER KNOW
You never know a good thing til its gone

VERSE 2

Good times i wish i didnt remember
With hopes and feelings I learnt to surrender
It starts to feel unwanted
But there are only so many things you can take for granted

I know when something just aint right
When the pain keeps me up all night
Haunting me without knowing what to do
5 words echoing i will allways love you

CHORUS

You never know a good thing til its gone
NEVER KNOW
You never know a good thing til its gone

You never know a good thing til its gone
NEVER KNOW
You never know a good thing til its gone



Tap to rate this tab
 
# A B C D E F G H I J K L M N O P Q R S T U V W X Y Z