Song name
# A B C D E F G H I J K L M N O P Q R S T U V W X Y Z

Misc Unsigned Bands - Red Elektrika - Allright With Me tab

Allright With Me
(Lyrics & Music by Officer Dan)
Standard Tuning

Intro, Verses, & Solo Rhythm

e--------------------------------|-----------------------------------------|
B--------------------------------|-----------------------------------------|
G--------------------------------|-----------------------------------------|
D--------------------------------|-----------5-5-3-3-3--------(pm)---------|
A-5--5-5---3-5-5--5--5-5---3-5-5-|-5-5~5-5---3-3-1-1-1-5~5-5-5-5-5-5-5-5---|
E-3--3-3-0-1-3-3--3--3-3-0-1-3-3-|-3-3~3-3-0-----------3~3-3-3-3-3-3-3-3---|

Chorus

e-----------------------------|-----------------------------------------|
B-----------------------------|-----------------------------------------|
G-----------------------------|-----------------------------------------|
D-----------------------5-4---|-----------------------5-4-7-7-7-7-7-7-7-|
A-5-5-5-5-5-5-5-5-5-5-5-3-2-5-|-5-5-5-5-5-5-5-5-5-5-5-3-2-5-5-5-5-5-5-5-|
E-3-3-3-3-3-3-3-3-3-3-3-----3-|-3-3-3-3-3-3-3-3-3-3-3-------------------|

e----------------------------|
B----------------------------|
G----------------------------|
D-9-9-9-7-7-7----------------|
A-7-7-7-5-5-5-5--5-5---3-5-5-|
E-------------3--3-3-0-1-3-3-| Repeat rhythm

Solo
e------------------------------------|---------------------------------|
B-8v-8-8-6-6-8-8v--8-8v-8-8-6-6-8-8v-|-8-8v-8-8-6-6/13-13-11-11-11-8~~-|
G-7v-7-7-5-5-7-7v--7-7v-7-7-5-5-7-7v-|-7-7v-7-7-5-5/12-12-10-10-10-7~~-|
D------------------------------------|---------------------------------|
A------------------------------------|---------------------------------|
E------------------------------------|---------------------------------|

e-----------------------------------------|-----------------------------------------|
B-----------------------------------------|-----------------------------------------|
G-------------------------------------13b-|-------------------------------------15b-|
D-13/15-15-13-15-15-15-13-15-15-15-13-----|-13/15-15-13-15-15-15-13-15-15-15-13-----|
A-----------------------------------------|-----------------------------------------|
E-----------------------------------------|-----------------------------------------|

e-----------------------------------------------|
B-----------------------------------------------|
G-15-13-15/17-17-15-17-17-15-17/19-19-17-19-19--|
D-----------------------------------------------|
A-----------------------------------------------|
E-----------------------------------------------|

e-------17-19-19-19-17-17/22-22-22-22-22-22-22-22-22-22-22/0-|
B-17-19------------------------------------------------------|
G------------------------------------------------------------|
D------------------------------------------------------------|
A------------------------------------------------------------|
E------------------------------------------------------------|

That's pretty much it when you hear the song! 
Tap to rate this tab
# A B C D E F G H I J K L M N O P Q R S T U V W X Y Z