Song name
# A B C D E F G H I J K L M N O P Q R S T U V W X Y Z

Misc Unsigned Bands - Beyond Animator - New Obligation tab

* = Palm Mute

Beyond Animator

New Obligation

Intro :-

e--------------------------------|
B--------------------------------|
G--------------------------------|
D--5--5--5-5----5-5-5-5-5-5-5-5--|
A--5--5--5-5----5-5-5-5-5-5-5-5--|
E--3--3--3-3----3-3-3-3-3-3-3-3--|

e-----------------------|----------|
B-----------------------|          |
G-----------------------|          |
D--5-5-5-5--8-8--6/7-7--|  X 3     |
A--5-5-5-5--8-8--6/7-7--|          |
E--3-3-3-3--6-6--4/5-5--|          |
                                   |
e-----------------------|          |  On last time just strum (355xxx). 
B-----------------------|          |
G-----------------------|          |
D--5-5-5-5--7-7-7-7-----|  X 1     |
A--5-5-5-5--7-7-7-7-----|          |
E--3-3-3-3--5-5-5-5-----|----------|  

Chorus :-

e-------------------------------------------|
B-------------------------------------------|
G-------------------------------------------|
D--7-------2-------4-------3-------2--------|  X 3   
A--7--(X8)-2--(X8)-4--(X8)-3--(X4)-2--(X4)--|
E--5-------0-------2-------1-------0--------| 

e-------------------|
B-------------------|
G-------------------|
D--3-------2--------|   
A--3--(X4)-2--(X4)--|
E--1-------0--------| 

Verse 1 :-

e--------------------------|
B--------------------------|
G--------------------------|
D--3---3-3-3----7---7-7-7--|   X 3
A--3---3-3-3----7---7-7-7--|
E--1---1-1-1----5---5-5-5--|
       * * *        * * *

e----------------------------------------------------|
B----------------------------------------------------|
G----------------------------5---5-5-5----7---7-7-7--|
D--3---3-3-3----7---7-7-7----5---5-5-5----7---7-7-7--|   X 1
A--3---3-3-3----7---7-7-7----3---3-3-3----5---5-5-5--|
E--1---1-1-1----5---5-5-5----------------------------|
       * * *        * * *

Chorus :-

e-------------------------------------------|
B-------------------------------------------|
G-------------------------------------------|
D--7-------2-------4-------3-------2--------|  X 3   
A--7--(X8)-2--(X8)-4--(X8)-3--(X4)-2--(X4)--|
E--5-------0-------2-------1-------0--------| 

e-------------------|
B-------------------|
G-------------------|
D--3-------2--------|   
A--3--(X4)-2--(X4)--|
E--1-------0--------| 

Verse :-

e--------------------------|
B--------------------------|
G--------------------------|
D--3---3-3-3----7---7-7-7--|   X 7
A--3---3-3-3----7---7-7-7--|
E--1---1-1-1----5---5-5-5--|
       * * *        * * *

e----------------------------------------------------|
B----------------------------------------------------|
G----------------------------5---5-5-5----7---7-7-7--|
D--3---3-3-3----7---7-7-7----5---5-5-5----7---7-7-7--|   X 1
A--3---3-3-3----7---7-7-7----3---3-3-3----5---5-5-5--|
E--1---1-1-1----5---5-5-5----------------------------|
       * * *        * * *

Chorus :-

e-------------------------------------------|
B-------------------------------------------|
G-------------------------------------------|
D--7-------2-------4-------3-------2--------|  X 1   
A--7--(X8)-2--(X8)-4--(X8)-3--(X4)-2--(X4)--|
E--5-------0-------2-------1-------0--------| 

e-------------------|
B-------------------|
G-------------------|
D--3-------2--------|   X 2
A--3--(X4)-2--(X4)--|
E--1-------0--------| 

Breakdown :-

e---------------|
B---------------|
G---------------|
D--0-0-0-0--0~--|
A--0-0-0-0--0~--|
E--0-0-0-0--0~--|
   * * * *  
e---------------------------------------------------------------------|
B---------------------------------------------------------------------|
G---------------------------------------------------------------------|
D--7-7-7-7-7-7-7-7--5-5-5-5-5-5-5-5--7-7-7-7-7-7-7-7--3-3-3-3-3-3-3-3-|  X 3
A--9-9-9-9-9-9-9-9--7-7-7-7-7-7-7-7--9-9-9-9-9-9-9-9--5-5-5-5-5-5-5-5-|
E---------------------------------------------------------------------|

e-----------------------------------------------------------------------|
B-----------------------------------------------------------------------|
G-----------------------------------------------------------------------|
D--7-7-7-7-7-7-7-7--5-5-5-5-5-5-5-5--7-7-7-7-7-7-7-7------3-5-6-5-3-----| X 1
A--9-9-9-9-9-9-9-9--7-7-7-7-7-7-7-7--9-9-9-9-9-9-9-9--3-5------------5--|
E-----------------------------------------------------------------------|

Verse 3 :-

e------------------------------------------|
B------------------------------------------|
G----------------------3-3-3-xx-3-xx-3-xx--|
D--5-5-5-xx--3-3-3-xx--3-3-3-xx-3-xx-3-xx--|   X 4
A--5-5-5-xx--3-3-3-xx--1-1-1-xx-1-xx-1-xx--|
E--3-3-3-xx--1-1-1-xx----------------------|

e------------------------------------------|
B------------------------------------------|
G--3-3-3-xx--------------------------------|
D--3-3-3-xx--3-3-3-xx--5-5-5-xx--5--5------|   X 4
A--1-1-1-xx--3-3-3-xx--5-5-5-xx--5--5------|
E------------1-1-1-xx--3-3-3-xx--3--3------|


e------------------------------------------|
B------------------------------------------|
G----------------------3-3-3-xx-3-xx-3-xx--|
D--5-5-5-xx--3-3-3-xx--3-3-3-xx-3-xx-3-xx--|   
A--5-5-5-xx--3-3-3-xx--1-1-1-xx-1-xx-1-xx--|
E--3-3-3-xx--1-1-1-xx----------------------|

e------------------------------------------|
B------------------------------------------|
G--3-3-3-xx--------------------------------|
D--3-3-3-xx--3-3-3-xx--5-5-5-xx-5-xx-5-xx--| 
A--1-1-1-xx--3-3-3-xx--5-5-5-xx-5-xx-5-xx--|
E------------1-1-1-xx--3-3-3-xx-3-xx-3-xx--|

Chorus :-

e-------------------------------------------|
B-------------------------------------------|
G-------------------------------------------|
D--7-------2-------4-------3-------2--------|  X 3   
A--7--(X8)-2--(X8)-4--(X8)-3--(X4)-2--(X4)--|
E--5-------0-------2-------1-------0--------| 

e-------------------|
B-------------------|
G-------------------|
D--3-------2--------|  
A--3--(X4)-2--(X4)--|
E--1-------0--------| 

e--------------------------|
B--------------------------|
G--------------------------|
D--3-------2-2-2-2--2~~----|  
A--3--(X4)-2-2-2-2--2~~----|
E--1-------0-0-0-0--0~~----|
           * * * * 

[[END]]


Lyrics

Intro :-

With my eyes I watched you all.
I watched your rise, I controlled your fall.
Through my heart I convinced you all.
To think that I’m who you should call.
When you’re in dept, when you’re in pain.
But look how I left you shouting my name.
Never once made you bleed, still you cannot say.
That certain harm was never made.
Now at the end you look back at me.
You wonder how all this happened.
You forgot to not turn your back on me.
Your betrayal was no match for envy.

Chorus :-

FUCK!…What makes you think I need you?
CUNT!… I no longer need your approval.
FUCK!…You mean nothing to me.
Just an ant, just an ant, washed up by the sea.

Verse 1 :-

My battle still proceeds.
In the empire known as home.
Please plant the turmoil seeds.
To ease the pain what’s grown.
Everyone imitates you now.
So you’re doing something right.
So sleep safe in the knowledge.
That the drench will drain tonight.

Verse 2 :-

My pallet’s covered in bright paint,
It gets smothered over my portrait.
I’d rather the colours were black and grey.
Far from the shade of my own way
Sunshine burns the hurt of my rain.
What’s left of mine turns into rich shame.
I’m not contempt with what’s not missing
It’s what I have that keeps reminiscing. 

Breakdown :-

Screams of…your name…enhanced by my tears…
What spot…can X mark…if the pain won’t disappear?

Verse 3 :-

After the end of my prime.
Laughter depended on their lines.
Split into groups, split into two.
Read the books which they hand to you.
Obey silence in a crowded room
Boy grows old from his youth.
Future thoughts from yesterday,
Only hears now what he’d like to say.
 
 
 
 











 




Tap to rate this tab
# A B C D E F G H I J K L M N O P Q R S T U V W X Y Z