Song name
# A B C D E F G H I J K L M N O P Q R S T U V W X Y Z

Misc Unsigned Bands - Risen - Until The End tab

drop d

intro(heavy distortion)
-----------------------------------------|
-----------------------------------------|
-----10------10-9-12------10-----10-9----|
-0000----0000---------0000---0000----10--| 2x
-0000----0000---------0000---0000--------|
-0000----0000---------0000---0000--------|

fig1(verse)
-----------------------|
-----------------------|
-----------------------| 4x
-0-0-0-3~--0-0-0-3-2---|
-0-0-0-3~--0-0-0----3--|
-0-0-0-3~--0-0-0-------|
 . . .     . . .

fig2(verse)
------------------------------------------------------|
------------------------------------------------------|
------------------------------------------------------|
--000222333555000222333555-------333---------333------| 2x
---------------------------333555---111333555---111---|
------------------------------------------------------|
pm....................................................

chorus
------------------------------|
------------------------------|
------------------------------|
--00003-0000-35-00003-000053--|
--00003-0000-35-00003-000053--| 2x
--00003-0000-35-00003-000053--|
pm....  ....    ....  ....

structure
intro
fig1
fig2
chorus
fig2
fig1
chorus
intro
fig1
chorus(outro)
Tap to rate this tab
# A B C D E F G H I J K L M N O P Q R S T U V W X Y Z