Song name
# A B C D E F G H I J K L M N O P Q R S T U V W X Y Z

Misc Unsigned Bands - Jack Attack - Epic tab

----------------------------------------------------------------------------
			     Epic - Jack Attack
----------------------------------------------------------------------------

Tabbed by:StaySmiley
Email:jax33dlvn@aim.com

Tuning:Standard

Listen to it at www.myspace.com/ZOMGjackattack for the rhythm
          C                               Amin
e|--------------------------------------------------------------------------|
B|--------1----------------1--------------0h1-----0-----0h1-----------------|
G|------0---0------------0---0---0------2-----2-----2-----------------------|
D|----2-------0h1-0----0-------0------2---------2-----2---------------------|
A|--3----------------2--------------0---------------------------------------|
E|--------------------------------------------------------------------------|

Then strumming begins on a : C -  E  - Amin : pattern pulling off of the 1st fret on the 
string every once in a while during strumming.

Again, listen to it at myspace.com/ZOMGjackattack for the rhythm

enjoy.


| /  slide up
| \  slide down
| h  hammer-on
| p  pull-off
| ~  vibrato
| +  harmonic
| x  Mute note
============================================================================
Tap to rate this tab
 
# A B C D E F G H I J K L M N O P Q R S T U V W X Y Z