Song name
# A B C D E F G H I J K L M N O P Q R S T U V W X Y Z

Misc Unsigned Bands - Silver Method - Unsung Hero tab

hey yos, this tab is 100%accurate, cuz im in silver methodd!!!

                               INTRO A
this is the very beginning, with the announcement 'we are gathered here today, as the
heros of the real world'
E-------------------------------------------------------------------------------|
B-------------------------------------------------------------------------------|
G-------------------------------------------------------------------------------|
D-------------------------------------------------------------------------------|
A-------------------------------------------------------------------------------|
D----7--5--3--5--7--7--5--3-----------------------------------------------------|

                               INTRO B
this is the beginning part, with the heaavy crap
E---------------------------------------------------------------------------|
B---------------------------------------------------------------------------|
G----45--54--45--542--45--54--45--542---------------------------------------|
D--77--55--33--55---77--55--33--55------------------------------------------|
A--77--55--33--55---77--55--33--55------------------------------------------|
D--77--55--33--55---77--55--33--55------------------------------------------|

                               VERSE
this is the part that sounds a bit like crazy train, in an awkward way
E---------------------------------------------------------------------------|
B---------------------------------------------------------------------------|
G---------------------------------------------------------------------------|
D--77----55--33--77----55--33-----------------------------------------------|
A--77----55--33--77----55--33-----------------------------------------------|
D--77----55--33--77----55--33-----------------------------------------------|

                           CHOURS-RHYTHM
this is the chours, that sounds quite a bid different from the song
E---------------------------------------------------------------------------|
B---------------------------------------------------------------------------|
G---------------------------------------------------------------------------|
D--7777--10101010--3333--5555-----------------------------------------------|
A--7777--10101010--3333--5555-----------------------------------------------|
D--7777--10101010--3333--5555-----------------------------------------------|

                           CHOURS-LEAD
E---------------------------------------------------------------------------|
B---------------------------------------------------------------------------|
G------------------9-10-9-10-12-10-9-10-9-10-12-10-9-7----------------------|
D---------------------------------------------------------------------------|
A---------------------------------------------------------------------------|
D--7777--10101010-----------------------------------------------------------|

this is the orded of the song - inrto a, intro b, verse, chours, verse, chours, solo-
out my solo tab later    peace out- lil z.
Tap to rate this tab
 
# A B C D E F G H I J K L M N O P Q R S T U V W X Y Z