Song name
# A B C D E F G H I J K L M N O P Q R S T U V W X Y Z

Misc Unsigned Bands - Black Amendment - Staircase Of Hell tab

Black Amendment-Staircase of Hell
(played in order of tab)

Intro: Palm muted
E-------------------|
B-------------------|
G-------------------| (x4)
D-------------------|
A-------------------|
E-3p0-0-0-1p0-0-0-0-|
Chorus:
E-------------------------------|
B-------------------------------|
G-------------------------------| (x4)
D-2-2-2-2-2-2-2-2-2-2-------3-2-|
A-2-2-2-2-2-2-2-2-2-2-------3-2-|
E-0-0-0-0-0-0-0-0-0-0-1h3p1-1-0-|
Bridge:
E-------|
B-------|
G-------|
D-2-3-5-|
A-2-3-5-|
E-0-1-3-|
Solo 1:
E-----------------------9h11h12--------------------------------------------|
B----------------9h11h12-------9h11h12/15~---------------------------------|
G-/8~/11~-9h11h12-------------------------14(x7 for 14, each time vibrato--|
D--------------------------------------------------------------------------|
A--------------------------------------------------------------------------|
E--------------------------------------------------------------------------|
Verse:
E-------------------------------------------------------------------|
B-------------------------------------------------------------------|
G-------------------------------------------------------------------|(x4, on the 2nd and 4th times, play 2 instead)
D-3-x-2-x-3-x-2-x-3-x-2-x-3-5                                    2--|
A-3-x-2-x-3-x-2-x-3-x-2-x-3-5                                    0--|
E-1-x-0-x-1-x-0-x-1-x-0-x-1-3---------------------------------------|
Chorus(x4)
Bridge(x1)
Solo 2:
E-15~----------------------------------------------------------------------|
B-16~-15-16-15h16h18-15h16h18\14h15h17-14h15h17----------------------------|
G----------------------------------------------15/17~----------------------|
D--------------------------------------------------------------------------|
A-------------------------------------------------------------------7h9h10-|
E----------------------------------------------------9h11h12-9h11h12-------|

E--------------------------------------------------------------------------|
B--------------------------------------------------------------------------|
G------------------------------------------------------------------9h11h12-|
D-----------------------5h7h8-5h7h8/8h10h11-8h10h11-9h11h12-9h11h12--------|
A-7h9h10/9h11h12-9h11h12---------------------------------------------------|
E--------------------------------------------------------------------------|

E--------/19~-----------------------------------------------------------|
B-----------------------------------------------------------------------|
G-9h11h12---------------------------------------------------------------|
D-----------------------------------------------------------------------|
A-----------------------------9h11h13-9h11h13\5h7h8-5h7h8---------------|
E------------11h12h15-11h12h15---------------------------3h5h6-3h5h6\1~-|

E-----------------------------------------------------------------------|
B-----------------------------------------------------------------------|
G-----------------------------------------------------------------------|
D-----------------------------------------------------15h17h19-15h17h19-|
A------------------12h14h15-12h14h15/15h17h19-15h17h19------------------|
E-10h12h14-10h12h14-----------------------------------------------------|

E-------------------------------------------16h17h19/21~~-|
B--------------------------17h19h20-17h19h20--------------|
G-17~-x-x-15h17h19-15h17h19-------------------------------|
D---------------------------------------------------------|
A---------------------------------------------------------|
E---------------------------------------------------------|

Verse(x4, on 2nd and 4th times, play Eminnor instead of the end power chord.)
Chorus(x4)
Outro:
E------------------------------|
B------------------------------|
G------------------------------|
D-3----------------------2-2-2-|
A-3-played 30 times FAST!2-2-2-|
E-1----------------------0-0-0-|
Bridge
----------------------------------------------------------------
Black Amendment(AKA my band!).
Tabbed by: Me.
Thank you.
Tap to rate this tab
# A B C D E F G H I J K L M N O P Q R S T U V W X Y Z