Song name
# A B C D E F G H I J K L M N O P Q R S T U V W X Y Z

Misc Unsigned Bands - Bluefire - The One tab

e|--0-0-0-0-2-2-2-2-0-0-0-0-0-0-0-0-----------------------------------------|
B|-0-0-0-0-0-0-0-0-2-2-2-2-1-1-1-1------------------------------------------|
G|--------------------------------------------------------------------------|
D|--------------------------------------------------------------------------|
A|--------------------------------------------------------------------------|
E|--------------------------------------------------------------------------|

e|--0-0-0-0-2-2-2-2-0-0-0-0-0-0-0-0-----------------------------------------|
B|-0-0-0-0-0-0-0-0-2-2-2-2-1-1-1-1------------------------------------------|
G|--------------------------------------------------------------------------|
D|--------------------------------------------------------------------------|
A|--------------------------------------------------------------------------|
E|--------------------------------------------------------------------------|

e|--0-0-0-0-2-2-2-2-0-0-0-0-0-0-0-0-----------------------------------------|
B|-0-0-0-0-0-0-0-0-2-2-2-2-1-1-1-1------------------------------------------|
G|--------------------------------------------------------------------------|
D|--------------------------------------------------------------------------|
A|--------------------------------------------------------------------------|
E|--------------------------------------------------------------------------|

e|--0-0-0-0-2-2-2-2-0-0-0-0-0-0-0-0-----------------------------------------|
B|-0-0-0-0-0-0-0-0-2-2-2-2-1-1-1-1------------------------------------------|
G|--------------------------------------------------------------------------|
D|--------------------------------------------------------------------------|
A|--------------------------------------------------------------------------|
E|--------------------------------------------------------------------------|

                                   Chorus
e|-0-0-0-0--0-0-0-0--0-0-0-0------------------------------------------------|
B|-0-0-0-0--0-0-0-0--0-0-0-0------------------------------------------------|
G|-1-1-1-1--2-2-2-2--1-1-1-1------------------------------------------------|
D|-2-2-2-2--2-2-2-2--2-2-2-2------------------------------------------------|
A|-2-2-2-2--0-0-0-0--2-2-2-2------------------------------------------------|
E|-0-0-0-0--0-0-0-0--0-0-0-0------------------------------------------------|
     play this song in acoustic

 *this song is property of bluefire* 9/15/07
Tap to rate this tab
# A B C D E F G H I J K L M N O P Q R S T U V W X Y Z