Song name
# A B C D E F G H I J K L M N O P Q R S T U V W X Y Z

Misc Unsigned Bands - Bluefire - A New Genre tab

e|----1---1---1---1---------------------------------------------------------|
B|---2---2---2---2-----2----2----2----2-------------------------------------|
G|--3---3---3---3-------3----3----3----3------------------------------------|
D|-3---3---3---3------3----3----3----3--------------------------------------|
A|-------------------0----0----0----0---------------------------------------|
E|--------------------------------------------------------------------------|

e|----1---1---1---1---------------------------------------------------------|
B|---2---2---2---2-----2----2----2----2-------------------------------------|
G|--3---3---3---3-------3----3----3----3------------------------------------|
D|-3---3---3---3------3----3----3----3--------------------------------------|
A|-------------------0----0----0----0---------------------------------------|
E|--------------------------------------------------------------------------|

this is a new song written by me "blufire". This song is the intro of a whole new genre. 
am not letting it all out until I get signed but this new genre is great. Here is the 
of it but the whole song does not follow this sound or pattern. By the way play this in acoustic.
Tap to rate this tab
 
# A B C D E F G H I J K L M N O P Q R S T U V W X Y Z