Song name
# A B C D E F G H I J K L M N O P Q R S T U V W X Y Z

Misc Unsigned Bands - Circle Of Destruction - A Day In June tab

-------------------------------------------------------------------------------
A DAY IN JUNE - Circle Of Destruction(www.myspace.com/circleofdestructionband)

-------------------------------------------------------------------------------
Tabbed by: Dean Ince
Email:deanince@hotmail.co.uk

Tuning: Standard

GUITAR 1 (Echo) - Main Riff/Verse(muted)/Chorus pt.1/Interlude

e|-------------------10---------------------------------8-----10-------------|
B|------8------10-------------------------10---------------------------------|
G|--7------7---------------7----9---10-----------10-----------------10--9----|
D|---------------------------------------------------------------------------|
A|---------------------------------------------------------------------------|
E|---------------------------------------------------------------------------|

GUITAR 2 (Distorted) - Chorus pt.1

e|---------------------------------------------------------------------------|
B|---------------------------------------------------------------------------|
G|----7----------------------------------------------------------------------|
D|----7---x7------2---3------------------------------------------------------|
A|----5-----------2---3---x8-------------------------------------------------|
E|----------------0---1------------------------------------------------------|

GUITAR 1 - Chorus pt.2

e|----------------------------10-----------------12----10--------------------|
B|-------------12----------------------12------------------------------------|
G|------12------------12-----------------------------------------------------|
D|---------------------------------------------------------------------------|
A|---------------------------------------------------------------------------|
E|---------------------------------------------------------------------------|

GUITAR 2 - Chorus pt.2

e|---------------------------------------------------------------------------|
B|---------------------------------------------------------------------------|
G|---------------------------------------------------------------------------|
D|-----5---------------------------------------------------------------------|
A|-----5---x8----------------------------------------------------------------|
E|-----3------------3--(let ring)--------------------------------------------|

GUITAR 1 - End of interlude

e|--------------------10-----------------------------------------------------|
B|----------8----8-10-10-----------------------------------------------------|
G|----7----------------------------------------------------------------------|
D|---------------------------------------------------------------------------|
A|---------------------------------------------------------------------------|
E|---------------------------------------------------------------------------|

GUITAR 1 - End of song

e|---------x-----------------------------------------------------------------|
B|---------x-----------------------------------------------------------------|
G|---------x-----------------------------------------------------------------|
D|---------x-----------------------------------------------------------------|
A|---------x-----------------------------------------------------------------|
E|---------x------(1 up, 1 down, x2)-----------------------------------------|

e|---------------------------------------------------------------------------|
B|---------------------------------------------------------------------------|
G|---------------------------------------------------------------------------|
D|---------------------------------------------------------------------------|
A|---------------------------------------------------------------------------|
E|---------------------------------------------------------------------------|

e|---------------------------------------------------------------------------|
B|---------------------------------------------------------------------------|
G|---------------------------------------------------------------------------|
D|---------------------------------------------------------------------------|
A|---------------------------------------------------------------------------|
E|---------------------------------------------------------------------------|


| /  slide up
| \  slide down
| h  hammer-on
| p  pull-off
| ~  vibrato
| +  harmonic
| x  Mute note
===============================================================================
Tap to rate this tab
 
# A B C D E F G H I J K L M N O P Q R S T U V W X Y Z