Song name
# A B C D E F G H I J K L M N O P Q R S T U V W X Y Z

Misc Unsigned Bands - Soul Circumference - Wind City tab

----------------------------------------------------------------------------
			     WIND CITY - Soul Circumference
----------------------------------------------------------------------------
Tabbed by: J.H.R.
Email:Hubboarder@aol.com

Tuning:Standard

Intro/Verse
e|------777777---------771010---------777777---------777777----------------|
B|------888888---------888888---------777777---------10b11r10--------------|
G|------777777---------777777---------777777---------777777----------------|
D|------999999---------999999---------777777---------777777----------------|
A|-7-7--777777----7-7--777777---------999999---------999999----------------|
E|-------------------------------7-7--777777----7-7--777777----------------|

e|------555555---------555555---------777777---------771010----------------|
B|------555555---------555555---------777777---------777777----------------|
G|------555555---------555555---------777777---------777777----------------|
D|------555555---------555555---------777777---------777777----------------|
A|------777777---------777777---------999999---------999999----------------|
E|-5-5--555555----5-5--555555----7-7--777777----7-7--777777----------------|


Chorus
e|-----------------------------------------------------------------------|
B|-----------------------------------------------------------------------|
G|----99999x99999---77777x77777---55555x55555---44444x44444--------------|X2
D|----99999x99999---77777x77777---55555x55555---44444x44444--------------|
A|----77777x77777---55555x55555---33333x33333---22222x22222--------------|
E|-----------------------------------------------------------------------|

End of Chorus
e|---0-------2-------0-------2-------x-------------------------------------|
B|---1-------3-------1-------3-------7-------------------------------------|
G|---0-------4-------0-------4-------7-------------------------------------|
D|---2-------4-------2-------4-------7-------------------------------------|
A|---3-------2-------3-------2-------5-------------------------------------|
E|-------------------------------------------------------------------------|

I dont have the solo finished yet, but eventually I will post it.
Tap to rate this tab
 
# A B C D E F G H I J K L M N O P Q R S T U V W X Y Z