Song name
# A B C D E F G H I J K L M N O P Q R S T U V W X Y Z

Misc Unsigned Bands - Lightspeed Champion - Mr Fisk tab

-------------------------------------------------------------------------------
			     MR Fisk - Lightspeed Champion
-------------------------------------------------------------------------------
Tabbed by: Alex Waddell
Email:alexwaddell1990@hotmail.com

Tuning: standard

youll need to listen to the track. im just making it easy for any one who wants to go 
here because im being lazy.
any comic book fans sorry about the bad spelling. im dyslexic.

intro
e|-----------------------------------------|
B|-----------------------------------------|
G|-2-2-2------3-2-0-------------2-0--------|x 2
D|------------------5-5-5-----------3------|
A|----------0-1-0---------------0----------|
E|--1-1-1-3----------3-3--0-1-3-----1------|

verse (play with first few lines)
e|-----------------------------------------|
B|-----------------------------------------|
G|-----------------------------------------|
D|-----------------------------------------|
A|-----------------------------------------|
E|-1-1-1-1-1-1-1-1-3-3-3-3-3-3-3-3---------|

e|-----------------------------------------|
B|-----------------------------------------|
G|-----------------------------------------|
D|-----------------------------------------|
A|-3-3-3-3-3-3-3-3-------------------------|
E|-----------------1-1-1-1-1-1-1-1---------|

chords: (change to these after a bit on first time to chords)
F Gm C F Gm C F 
Dm Gm C F Dm Gm
(second time round its all chords which are)
F Gm C F F Gm C FGm C F Em Dm Gm C FDm Gm F

Lyrics: (Repeat)
You are the betty to my bruce banner, my akilese heal,
My mary Jane watson and my dark phionix,
I try my best to concour all and be my most evil but i fail, i sure fail,
you are my simbiet constume cos at first i felt grey,
everything seem new and i knew it wouldnt be long before,
i tired to be my best for you,
but now there is nothing i can do, but, cry


sorry again about the spelling.

dev is a leg end.
and this is a tune.
why does this site not reconise it as a band.
lightspeeds signed to the same company as artic monkey and franz ffs.
do something about it please.

if you want to contact me or something comment my myspace
www.myspace.com/212658788
Tap to rate this tab
# A B C D E F G H I J K L M N O P Q R S T U V W X Y Z