Song name
# A B C D E F G H I J K L M N O P Q R S T U V W X Y Z

Misc Unsigned Bands - Cryptic Union - Drowning Your Screams tab

-------------------------------------------------------------------------------
			     Drowning Your Screams - Cryptic Union
-------------------------------------------------------------------------------
Tabbed by: mCiccone

Email:Cicconmr@muohio.edu

Tuning: Standard

This is what I did while everyone was at the Football game:

Intro: (Three Phrases)
  
    C5    Eb5   F5   G5  Bb5
e|----------------------------| - This is the main harmony of the song,
B|----------------------------|   played by Maxwell Damski
G|--5-----8-----10---12--15---|
D|--5-----8-----10---12--15---|
A|--3-----6-----8----10--13---|
E|----------------------------|  x 2

e|---------------------------------------------------| - At this point Jack
B|---------------------------------------------------|   is just filling
G|-/9-8-6-8-6-8-9b~~(r)-8~--/9-8-6-8-6-4-6~-3~--9*---|   random pinch
D|---------------------------------------------------|   harmonics (If he 
A|---------------------------------------------------|   even has his Amp on)
E|---------------------------------------------------|

e|------------------------------------------------------------------|
B|-/14-13-11-13-11-13-14b~~(r)-13~-/14-13-11-13-11-9-11~-8~---------|
G|------------------------------------------------------------------|
D|------------------------------------------------------------------|
A|------------------------------------------------------------------|
E|------------------------------------------------------------------|

e|-----------------------------------------------------------------------|
B|-----------------------------------------------------------------------|
G|-2p0-0-3p0-0-5p0-0-7p0-0-9h10-9\--2p0-0-3p0-0-5p0-3p0-0-5p0-0-7p0------|
D|-----------------------------------------------------------------------|
A|-----------------------------------------------------------------------|
E|-----------------------------------------------------------------------| x4

- On the third repeat, the other guitar will play the same phrase on either 
  the B or D strings, which ever suits you.

Verse: Part 1

  
    C5    Eb5   F5   G5  Bb5
e|----------------------------| 
B|----------------------------|   
G|--5-----8-----10---12--15---|
D|--5-----8-----10---12--15---|
A|--3-----6-----8----10--13---|
E|----------------------------|

Fill:

   C5         Eb5              F5                 G5      Bb5   
e|--------------------------------------------------------------------|
B|--------------------------------------------------------------------|
G|-2p0-0-3p0-0-5p0-2p0-0-3p0-0-5p0-2p0-0-3p0-0-5p0-7p0-9p0-11p0-12p0--|
D|--------------------------------------------------------------------|
A|--------------------------------------------------------------------|
E|--------------------------------------------------------------------| x2 

                 Your Screaming...
                 Like Music....

Part 2: (The harmony drops out, no chords)

e|--------------------------------------------------------------------|
B|--------------------------------------------------------------------|
G|-2p0-0-3p0-0-5p0-2p0-0-3p0-0-5p0-2p0-0-3p0-0-5p0-7p0-9p0-11p0-12p0--|
D|--------------------------------------------------------------------|
A|--------------------------------------------------------------------|
E|--------------------------------------------------------------------| x2

               From tortures...
               ??????.....

Chorus:

e|---------------------------------------------------| 
B|---------------------------------------------------|  
G|-/9-8-6-8-6-8-9b~~(r)-8~--/9-8-6-8-6-4-6~-3~--9*---|   
D|---------------------------------------------------|    
A|---------------------------------------------------|   
E|---------------------------------------------------| x 2

  I've...                   And...

  I've...                          Drowning....

Verse

Chorus

Extended Break Down:

Phrase 1:

* Play these double stops over the Fill

e|-----------------------------------------------------------------|
B|-----------------------------------------------------------------|
G|-----------------------------------------------------------------|
D|-7------8----7---5-----7----7---7--------8----7----5---7---8-----|
A|-5------6----5---3-----5----5---5--------6----5----3---5---6-----|
E|-----------------------------------------------------------------|

   Now is what this place will be I made it just for you and me
   As....Concentration                                       Fate

e|---------------------------------|
B|---------------------------------|
G|---------------------------------|
D|----10-----8--7---7-----5--3-5---|
A|----8------6--5---5-----3--1-3---|
E|---------------------------------|

   The wages of your s____in
   So let    us begi______n

Fill:

*This is pretty much all Tr. This is the melody, just get down the timing 

e|------------------------------------------------------------------|
B|------------------------------------------------------------------|
G|------------------------------------------------------------------|
D|--7-7-7-8-7-5-7-7-7-7-7-8-7-5-7-8~--7-8/10-10-8-7-5/7-5-----------|
A|------------------------------------------------------------------|
E|------------------------------------------------------------------|

    Now....

e|------------------------------------------------------------------|
B|------------------------------------------------------------------|
G|------------------------------------------------------------------|
D|--7-7-7-8-7-5-7-7-7-7-7-8-7-5-7-8~--7-8/10-8-7-5/7-5--------------|
A|------------------------------------------------------------------|
E|------------------------------------------------------------------|

    As....

Phrase 2: x 3

e|------------------------------------------------------------|
B|------------------------------------------------------------|
G|-9------10-9-7-9---------10-9-7-5-----7-5-7--4--------------|
D|-9------10-9-7-9---------10-9-7-5-----7-5-7--4--------------|
A|-7------8--7-5-7---------8--7-5-3-----5-3-5--2--------------|
E|------------------------------------------------------------|

Fill:

e|------------------------------------------------------------|
B|--9-9-9-10-9-7-9-9-9-9-9-10-9-7-5-5--5-7-5-7/-4~-4*---------|
G|------------------------------------------------------------|
D|------------------------------------------------------------|
A|------------------------------------------------------------|
E|------------------------------------------------------------|

Phrase 3:

e|------------------------------------------------------------|
B|------------------------------------------------------------|
G|-9------10-9-7-9---------10-9-7-5------7-5-7--9---7---------|
D|-9------10-9-7-9---------10-9-7-5------7-5-7--9---7---------|
A|-7------8--7-5-7---------8--7-5-3------5-3-5--7---5---------|
E|------------------------------------------------------------|

Fill:

e|------------------------------------------------------------|
B|--9-9-9-10-9-7-9-9-9-9-9-10-9-7-5-5--5-7-5-7-7/9~-7~--------|
G|------------------------------------------------------------|
D|------------------------------------------------------------|
A|------------------------------------------------------------|
E|------------------------------------------------------------|

                                                        HUN!

* Guitar 3 plays this at two parts:

e|-----------------------------------|
B|-----------------------------------|
G|------/12-9-11--/14-11-13----------|
D|-----------------------------------|
A|-----------------------------------|
E|-----------------------------------|

 Aware            end.
 Tonight          shattered.

Solo: (4 Phrases)

Phrase 1:

e|-------------------------------------------------------------------------|
B|-------------------------------------------------------------------------|
G|--15~~-15~~----12-15~~-15~~-15b~----------------------------12h13h15-----|
D|------------/15---------------------------------------13-15--------------|
A|---------------------------------------------13h15h16--------------------|
E|------------------------------------13h15h16-----------------------------|

e|----16-13------------------|
B|------------16-14-13/------|
G|---------------------------|
D|---------------------------|
A|---------------------------|
E|---------------------------|

Phrase 2: *This is Jack's best part in any solo, it's just really fast Tr. 
           legato in minor

   Tr.------------------------------------------------>

e|-16p13-13-16p13-13--------------------------------------------------|
B|-------------------16p14p13-16p14p13--------------------------------|
G|-------------------------------------15p13p12-15p13p12--------------|
D|-------------------------------------------------------15/13--------|
A|--------------------------------------------------------------------|
E|--------------------------------------------------------------------|

    Tr.-------------------------------------------------->

e|--14p11-11-14p11-11------------------------------------------------11---|
B|---------------------14p12p11-14p12p11--------------------------11------|
G|----------------------------------------13p11p10-13p11p10---------------|
D|----------------------------------------------------------13/11---------|
A|------------------------------------------------------------------------|
E|------------------------------------------------------------------------|

Phrase 3: *Rake with your picking hand, but don't pick you the notes with
           your fretting hand like in a normal rake.

e|--14p11----------11-14p11----------11-14p11----------11-14p11----------11--|
B|--------14-12p11----------14-12p11----------14-12p11----------14-12p11-----|
G|---------------------------------------------------------------------------|
D|---------------------------------------------------------------------------|
A|---------------------------------------------------------------------------|
E|---------------------------------------------------------------------------|

e|-14p11----------11-14p11----------11--14p11-14p11--------------------|
B|-------14-12p11----------14-12p11-----------------14p11-14/----------|
G|---------------------------------------------------------------------|
D|---------------------------------------------------------------------|
A|---------------------------------------------------------------------|
E|---------------------------------------------------------------------|

Phrase 4:

e|-10p7--------7-10p7--------7-10p7-------7-10~(/12)-12p9---------9-------|
B|------10-8p7--------10-8p7--------7-8p7------------------9-10p9---------|
G|------------------------------------------------------------------------|
D|------------------------------------------------------------------------|
A|------------------------------------------------------------------------|
E|------------------------------------------------------------------------|

e|-14p11---------11--15h18-15h18p15h18-19b~---|
B|------14-12p11------------------------------|
G|--------------------------------------------|
D|--------------------------------------------|
A|--------------------------------------------|
E|--------------------------------------------|


*Jack wrote that at the age of 16.

Outro:

e|---------------------------------------------------------------------------|
B|-7-10-10-7-9-9-10-10-7-9-9-10-10-7-9-9-10-10-7-9-9-10-10-7-9-9-10-10-7-9---|
G|---------------------------------------------------------------------------|
D|---------------------------------------------------------------------------|
A|---------------------------------------------------------------------------|
E|---------------------------------------------------------------------------|

                                      I catch......
                                      I spit.....

e|--------------------------------|
B|-9-10-10-7-9-9-10-10-7-9--------|
G|--------------------------------|
D|--------------------------------|
A|--------------------------------|
E|--------------------------------| x 2

Guitar 1:

e|---------------------------------------------------------------------------|
B|-9-12-12-9-11-11-12-12-9-11-11-12-12-9-11-11-12-12-9-11-11-12-12-9-11-11---|
G|---------------------------------------------------------------------------|
D|---------------------------------------------------------------------------|
A|---------------------------------------------------------------------------|
E|---------------------------------------------------------------------------|

e|---------------------------------------------------------------------------|
B|-12-12-9-11-11-12-12-9-11-11-14-14-11-13-13-14-14-11-13-13-14-14-11-13-13--|
G|---------------------------------------------------------------------------|
D|---------------------------------------------------------------------------|
A|---------------------------------------------------------------------------|
E|---------------------------------------------------------------------------|

e|---------------------------------------------------------------|
B|-14-14-11-13-13-14-14-11-13-13-14-14-11-13-13-14-14-11-13------|
G|---------------------------------------------------------------|
D|---------------------------------------------------------------|
A|---------------------------------------------------------------|
E|---------------------------------------------------------------|

Guitar 2 plays the same on G

Paul drums it up

Chorus

End on this

e|----------------------------------------------------------|
B|----------------------------------------------------------|
G|--10-13-13-10-12-12-13-13-10-12-12-13-13-10-12-(12)-------|
D|----------------------------------------------------------|
A|----------------------------------------------------------|
E|----------------------------------------------------------|


Enjoy!


| /  Slide up
| \  Slide down
| h  Hammer-on
| p  Pull-off
| Tr. Tremolo
| ~  Vibrato
| ~~ Heaver Vibrato (like a downward bend)
| *  Pinch harmonic
| () Grace Note
| x  Mute note
=============================================================================
Tap to rate this tab
 
# A B C D E F G H I J K L M N O P Q R S T U V W X Y Z