Song name
# A B C D E F G H I J K L M N O P Q R S T U V W X Y Z

Misc Unsigned Bands - Bluefire - Things To Work Out tab

                                Intro
e|--------------------------------------------------------------------------|
B|--------------------------------------------------------------------------|
G|--------------------------------------------------------------------------|
D|--------------------------------------------------------------------------|
A|-4-4-x-4-4-x-5-5-x-5-5-x-4-4-x-4-4-x-4-4-x-5-5-x-5-5-x-4-4-x--------------|
E|-2-2-x-0-0-x-3-3-x-0-0-x-2-2-x-2-2-x-0-0-x-3-3-x-0-0-x-2-2-x--------------|

  [intro part 2]
e|--------------------------------------------------------------------------|
B|--------------------------------------------------------------------------|
G|--------------------------------------------------------------------------|
D|-4-4-x-4-4-x-5-5-x-5-5-x-4-4-x-4-4-x-4-4-x-5-5-x-5-5-x-4-4-x--------------|
A|-2-2-x-0-0-x-3-3-x-0-0-x-2-2-x-2-2-x-0-0-x-3-3-x-0-0-x-2-2-x--------------|
E|--------------------------------------------------------------------------|

  [intro part 3]
e|--------------------------------------------------------------------------|
B|--------------------------------------------------------------------------|
G|--------------------------------------------------------------------------|
D|--------------------------------------------------------------------------|
A|-4-4-x-4-4-x-5-5-x-5-5-x-4-4-x-4-4-x-4-4-x-5-5-x-5-5-x-4-4-x--------------|
E|-2-2-x-0-0-x-3-3-x-0-0-x-2-2-x-2-2-x-0-0-x-3-3-x-0-0-x-2-2-x--------------|

  [intro part 4]
e|--------------------------------------------------------------------------|
B|--------------------------------------------------------------------------|
G|--------------------------------------------------------------------------|
D|-4-4-x-4-4-x-5-5-x-5-5-x-4-4-x-4-4-x-4-4-x-5-5-x-5-5-x-4-4-x--------------|
A|-2-2-x-0-0-x-3-3-x-0-0-x-2-2-x-2-2-x-0-0-x-3-3-x-0-0-x-2-2-x--------------|
E|--------------------------------------------------------------------------|

                               Verse 1
e|--------------------------------------------------------------------------|
B|--------------------------------------------------------------------------|
G|--------------------------------------------------------------------------|
D|-----------------------------6-6-4-4-7-7-x--------------------------------|
A|-4-4-x-4-4-x-4-4-x-4-5-5-6-6-4-4-2-2-5-5-x--------------------------------|
E|-2-2-x-0-0-x-2-2-x-2-3-3-4-4----------------------------------------------|

 [verse 1 part 2]
e|--------------------------------------------------------------------------|
B|--------------------------------------------------------------------------|
G|--------------------------------------------------------------------------|
D|-----------------------------6-6-4-4-7-7-x--------------------------------|
A|-4-4-x-4-4-x-4-4-x-4-5-5-6-6-4-4-2-2-5-5-x--------------------------------|
E|-2-2-x-0-0-x-2-2-x-2-3-3-4-4----------------------------------------------|


                     CHORUS
e|-0---0---0---0--|
G|-2---2---2---2--|
B|-2---2---0---2--|
D|-1---0---2---0--| x2[strum each chord around 12 times]
A|-0---0---0---0--|
E|-0---0---0---0--|

                                 Verse 2
e|--------------------------------------------------------------------------|
B|--------------------------------------------------------------------------|
G|--------------------------------------------------------------------------|
D|-----------------------------6-6-4-4-7-7-x--------------------------------|
A|-4-4-x-4-4-x-4-4-x-4-5-5-6-6-4-4-2-2-5-5-x--------------------------------|
E|-2-2-x-0-0-x-2-2-x-2-3-3-4-4----------------------------------------------|

 [verse part 2]
e|--------------------------------------------------------------------------|
B|--------------------------------------------------------------------------|
G|--------------------------------------------------------------------------|
D|-----------------------------6-6-4-4-7-7-x--------------------------------|
A|-4-4-x-4-4-x-4-4-x-4-5-5-6-6-4-4-2-2-5-5-x--------------------------------|
E|-2-2-x-0-0-x-2-2-x-2-3-3-4-4----------------------------------------------|

e|-0---0---0---0--|
B|-2---2---0---2--|
G|-2---2---2---2--| x2 [strum each of these chords about 12 times each]
D|-1---0---2---0--|
A|-0---0---0---0--|
E|-0---0---0---0--|

Play song in distortion.
Play chorus in acoustic.

  If you are wondering, the vocals come in during the mutes in the verses[x].
For the chorus you just sing with the acoustic. By the way I was thinking about typing
lyrics for this but I want to work on the some more so if you check my profile in the
the lyrics may be there, but either way enjoy playing this song. It is mainly power 
so you can pick it up pretty fast.
Tap to rate this tab
# A B C D E F G H I J K L M N O P Q R S T U V W X Y Z