Song name
# A B C D E F G H I J K L M N O P Q R S T U V W X Y Z

Misc Unsigned Bands - Cordova - Make Me Wanna Kill Yo Ass tab

    Cordova- Make me wanna kill yo ass

standard tuning
simple song really

|-----------------------------|
|-----------------------------|
|-2222-0-5555-0-------------0-|   6x
|-2222-0-5555-0-5555-0-2222-0-|
|-0000-0-3333-0-5555-0-2222-0-|
|---------------3333-0-0000---|


|-------------------------|
|-------------------------|
|-22--22--44--44--55--55--|
|-22--22--44--44--55--55--|
|-00--00--22--22--33--33--|
|-------------------------|


|------------------------------------------------------------------|
|-----------------------2-222-2-2-22--4-444-4-4-44-5---------------|
|-----------------------2-222-2-2-22--4-444-4-4-44-5---------------|
|-----------------------0-000-0-0-00--2-222-2-2-22-5---------------|
|-00---22---44---55-6------------------------------3--9-9-10-10-12-|
|----0----0----0-----------------------------------3---------------|


lyrics

So I say I love you
So I wanna cry
So I'd never leave you

  So    I wanna die!
A victim, no credit
no no no no no no credit your just using me for your own good

and now Ive got what I need
youve got what you want
youve got my heart in a basket
my love on the line
but i hate you i hate you
but sometimes you make me so mad
You make me wanna kill yo  ass!
A victim    no credit
Make me wanna  kill  yo  ass!
you take al my money
you take all my love
you tell me you love me
well guess  what
your dead
your mine
were all alone, and i want you  now!
sometimes you make me wanna kill you
make me wanna kill you
make me wanna kill yo  ass!
Tap to rate this tab
 
# A B C D E F G H I J K L M N O P Q R S T U V W X Y Z