Song name
# A B C D E F G H I J K L M N O P Q R S T U V W X Y Z

Misc Unsigned Bands - Deathrow Saints - Pale Horse tab

                     Pale Horse by Deathrow Saints
email me at casey_sommer@hotmail.com          i'll need to edit this alot more,but it's 
great song

w/ reverb,EQ settings Bass-half mid-full treble-full


INTRO
--------------------------------------------------------|
--------------------------------------------------------|
--7-----------------------------------------------------|
-5-5-7-7-8-8-------------------------12-----------------|
------5-6--6-8--10----10--10---10----10-----------------|  X4
-------------6---8----8---8----8------------------------|


RIFF 1
--------------------------------------------------------------------------|
--------------------------------------------------------------------------|
--------------------------------------------------------------------------|
--------------------------------------------------------------------------|
---7-5----------------8-5------------5-3----------------6-3---------------|
-5-----8-7-5~~~~5-5-5-----8-7-5~~~~3-----6-5-3~~~~1-1-1-----6-5-3---3-5-3-|

INTRO SOLO-
-----------------------------5-7-5-10-8------------------------|
-------------------------5-8------------10-8-------------------|
---------------8-7-5-7-8---------------------9-7-5-------------|
--------7-9-10-------------------------------------7-5-------5-|
-7-9-10------------------------------------------------7-5-3---|
---------------------------------------------------------------|

---------------------------------------------8-5-10^-|
---------------------------8---8--------5-7----------|
-------------------5---5-7---7---7----5--------------|
-7-------------7-5---5--------------5----------------|
---5-7-----7-5---------------------------------------|
-------5-5-------------------------------------------|
Tap to rate this tab
# A B C D E F G H I J K L M N O P Q R S T U V W X Y Z