Song name
# A B C D E F G H I J K L M N O P Q R S T U V W X Y Z

Misc Unsigned Bands - Soul Circumference - Let Down tab

Help us improve GuitareTab! Take a short survey!
----------------------------------------------------------------------------
			   LET DOWN - Soul Circumference
----------------------------------------------------------------------------
Tabbed by:J.H.R.
Email:Rosene_j@denison.edu

Tuning:Standard

Intro/Verse
e|-------------------------------------------------------------------------|
B|-------------------------------------------------------------------------|
G|-------------------------------------------------------------------------|
D|-----3-----3------3--------2-----2----2--------3---3----3------2---2-----|
A|--5-----5--------5---5---3-----3-----3---3---1---1----1---1--3---3---3---|
E|-------------------------------------------------------------------------|

e|-------------------------------------------------------------------------|
B|-------------------------------------------------------------------------|
G|-------------------------------------------------------------------------|
D|-------------------------------------------------------------------------|
A|---5---3--2--------------------------------------------------------------|
E|-------------------------------------------------------------------------|


Chorus
e|-----------------------------------------------------------------------|
B|-----------------------------------------------------------------------|
G|--7777777----3333333-3/55555555----3332222-----------------------------|X2
D|--7777777----3333333-3/55555555----3332222-----------------------------|
A|--5555555----1111111-1/33333333----1110000-----------------------------|
E|-----------------------------------------------------------------------|

e|-----------------------------------------------------------------------|
B|-----------------------------------------------------------------------|
G|--7777777-7/10101010---55555555----3332222-----------------------------|
D|--7777777-7/10101010---55555555----3332222-----------------------------|
A|--5555555-7/88888888---33333333----1110000-----------------------------|
E|-----------------------------------------------------------------------|

e|-----------------------------------------------------------------------|
B|-----------------------------------------------------------------------|
G|--7777777-7/10101010---55555555----------3-----5-----------------------|
D|--7777777-7/10101010---55555555--------3-----5-------------------------|
A|--5555555-7/88888888---33333333------1-----3---------------------------|
E|-----------------------------------------------------------------------|
Related for Soul Circumference - Let Down tab