Song name
# A B C D E F G H I J K L M N O P Q R S T U V W X Y Z

Misc Unsigned Bands - Break In The Case - Hollow Thoughts tab

Help us improve GuitareTab! Take a short survey!
   Intro/Verse Guitar 1
|-------------------------------------------------------------------------|
|-------------------------------------------------------------------------|
|5555555555555555---------------------------------------------------------|
|5555555555555555-6666666666665555-3333333333333333-6666666655555555------|
|3333333333333333-6666666666665555-3333333333333333-6666666655555555------|
|-----------------4444444444443333-1111111111111111-4444444433333333------|

   Intro Guitar 2
|-------------------------------------------------------------------------|
|-------------------------------------------------------------------------|
|555555555555555544444444777710101010-88888888-10101010-12121212----------|
|xxxxxxxxxxxxxxxxxxxxxxxxxxxx-x-x-x-x-xxxxxxxx--x-x-x-x--x-x-x-x----------|
|3333333333333333222222225555-8-8-8-8-66666666--8-8-8-8-10101010----------|
|-------------------------------------------------------------------------|

   Intro Guitar 2 Cont.
|-------------------------------------------------------|
|-------------------------------------------------------|
|1010101010101010-88887777------------------------------|
|-x-x-x-x-x-x-x-x-xxxxxxxx------------------------------|
|-8-8-8-8-8-8-8-8-66665555------------------------------|
|-------------------------------------------------------|

Verse both guitars play guitar 1 intro


Chorus
|------------------------------------------------------------------------|
|------------------------------------------------------------------------|
|888887777755555--------------------12-10-888887777755555----------------|
|8888877777555555555566666888889999--x--x-888887777755555555556666677777-|
|6666655555333335555566666888889999-10--8-666665555533333555556666677777-|
|---------------3333344444666667777----------------------333334444455555-|


|-----------------------------------------------------------------------|
|-----------------------------------------------------------------------|
|------------------------------------------------6666666666666666-------|
|9999999999999999777777777777777766666666666666666666666666666666-------|
|9999999999999999777777777777777766666666666666664444444444444444-------|
|777777777777777755555555555555554444444444444444-----------------------|

|-----------------------------------------------------------------------|
|-----------------------------------------------------------------------|
|--------------5----5---------------------------------------------------|
|5555-55555555-5----5---------------------------------------------------|
|5555-55555555-3----3---------------------------------------------------|
|3333-33333333----------------------------------------------------------|
      ********
















Related for Break In The Case - Hollow Thoughts tab