Song name
# A B C D E F G H I J K L M N O P Q R S T U V W X Y Z

Misc Unsigned Bands - Annihilation - Slaughter O Sponges tab

	Annihilation - Slaughter O' Sponges.
	Tabbed by: Dylan V. - Annihilation.

D|--------------------------------|
A|--------------------------------|
F|--------------------------------|
C|------------------3N----12/15\3-|
G|-0000-00-0000-------3N--12/15\3-|
C|-0000-00-0000-0-0-------12/15\3-|
   .... .. ....

D|---------------------------------------|
A|---------------------------------------|
F|---------------------------------------|
C|---------------------------------------|
G|-00-1-00-4-00-1H3-00-1-00-4---------3P-|
C|-00-1-00-4-00-1H3-00-1-00-4-0-1-4-3----|
   ..   ..   ..     ..   ..   . . . .

D|-------------------------------------------|
A|-------------------------------------------|
F|-------------------------------------------|
C|-------------------------------------------|
G|-00-1-00-4-00-1H3-00-1-00-4-0-1-4-3-1------|
C|-00-1-00-4-00-1H3-00-1-00-4-0-1-4-3-1-0-3P-|
   ..   ..   ..     ..   ..   . . . . .

D|---------------------------------------|
A|---------------------------------------|
F|---------------------------------------|
C|---------------------------------------|
G|-00-1-00-4-00-1H3-00-1-00-4---------3P-|
C|-00-1-00-4-00-1H3-00-1-00-4-0-1-4-3----|
   ..   ..   ..     ..   ..   . . . .

D|-------------------------------------------------|
A|-------------------------------------------------|
F|-------------------------------------------------|
C|-------------------------------------------------|
G|-00-1-00-4-00-1H3-00-1-00-4-0-1-4-3-1------0-0-0-|
C|-00-1-00-4-00-1H3-00-1-00-4-0-1-4-3-1-0-2P-0-0-0-|
   ..   ..   ..     ..   ..   . . . . .      . .

D|------------------24N--------|
A|------------------24N--------|
F|------------------24N--------|
C|-----------------------------|
G|-0000-00-0000-000-----22\3-0-|
C|-0000-00-0000-000-----22\3-0-|
   .... .. .... ..

D|-------------------------------------|
A|-------------------------------------|
F|-------------------------------------|
C|-------------------------------------|
G|---------333---------333---------333-|
C|-333-666-----333-666-----333-666-----|

D|-------------------------------------|
A|-------------------------------------|
F|-------------------------------------|
C|-------------------------------------|
G|---------222---------222---------222-|
C|-222-555-----222-555-----222-555-----|

D|-------------------------------------|
A|-------------------------------------|
F|-------------------------------------|
C|-------------------------------------|
G|---------333---------333---------333-|
C|-333-666-----333-666-----333-666-----|

D|---------------------------------------|
A|---------------------------------------|
F|---------------------------------------|
C|---------------------------------------|
G|-3-6-3-6-3-6-4-7-4-7-4-7-5-8-5-8-5-8-0-|
C|-------------------------------------0-|

D|--------------24N---------|
A|--------------24N---------|
F|--------------24N---------|
C|------------------12/15\3-|
G|-0000-00-0000-----12/15\3-|
C|-0000-00-0000-----12/15\3-|
   .... .. ....

D|------------------------------------------------|
A|------------------------------------------------|
F|------------------------------------------------|
C|------------------------------------------------|
G|-------3-------3------3-------2-------2-------2-|
C|-0-3-6---0-3-6---0-3-6--0-2-5---0-2-5---0-2-5---|
   . . .   . . .   . . .  . . .   . . .   . . .

D|-------------------------------------------------------------------------|
A|-------------------------------------------------------------------------|
F|-------------------------------------------------------------------------|
C|-------------------------------------------------------------------------|
G|-------3-------3-------3-4444-7777-5555-8888-----------6666-9999-0-3-2-0-|
C|-0-3-6---0-3-6---0-3-6-----------------------6666-9999-----------0-3-2-0-|
   . . .   . . .   . . .                                           . . .
Tap to rate this tab
# A B C D E F G H I J K L M N O P Q R S T U V W X Y Z