Song name
# A B C D E F G H I J K L M N O P Q R S T U V W X Y Z

Misc Unsigned Bands - Corrupted Youth - Problems tab

-------------------------------------------------------------------------------
			     Problems - Corrupted Youth
-------------------------------------------------------------------------------
Tabbed by: Pinkhaze29 (Taylor)
Email:taylorhaines@yahoo.com

This is the basics of it... There is a palm muting part with the first riff at the end. 
me any questions. Check these guys out at: www.myspace.com/corruptedyouthmd

Band: Corrupted Youth
Song: Problems
Album: This One's For You!

e|-------------------------------|
B|-------------------------------|
G|7--3-5--7--10-9--7--3-5--10-9--|
D|7--3-5--7--10-9--7--3-5--10-9--|
A|5--1-3--5--8--7--5--1-3--8--7--|
E|-------------------------------|

e|------------|
B|------------|
G|----7----5--|
D|-7--7-5--5--|
A|-7--5-5--3--|
E|-5----3-----|

| /  slide up
| \  slide down
| h  hammer-on
| p  pull-off
| ~  vibrato
| +  harmonic
| x  Mute note
===============================================================================
Tap to rate this tab
# A B C D E F G H I J K L M N O P Q R S T U V W X Y Z