Song name
# A B C D E F G H I J K L M N O P Q R S T U V W X Y Z

Misc Unsigned Bands - I Hate Pretty - Follow My Footsteps tab

1/----0----2------3--2--0------0-----2------3-2-0------2---5---7---5---3-2-0-|
2/--0----0----0-------------0-----0-----0----------0(let it ring)------------|
3/---------------------------------------------------------------------------|
4/---------------------------------------------------------------------------|
5/---------------------------------------------------------------------------|
6/---------------------------------------------------------------------------|
          Play this twice
1/---0---0----2----2----3----3----2----2-------------3----5---7---5---3----2-|
2/0----0---0----0----0----0----0----0------------0-----0----0---0---0---0----|
3/---------------------------------------------------------------------------|
4/---------------------------------------------------------------------------|
5/---------------------------------------------------------------------------|
6/---------------------------------------------------------------------------|

1/---0-------------0----0-----0----0-----2-----2------2-----2---3-3-3-3-2-2--|
2/0-------------0----0-----0-----0----0-----0-----0------0-----0-0-0-0-0-0-0-|
3/---------------------------------------------------------------------------|
4/---------------------------------------------------------------------------|
5/---------------------------------------------------------------------------|
6/---------------------------------------------------------------------------|
Tap to rate this tab
 
# A B C D E F G H I J K L M N O P Q R S T U V W X Y Z