Song name
# A B C D E F G H I J K L M N O P Q R S T U V W X Y Z

Misc Unsigned Bands - The Pollos - Drugs tab

intro x7

e-------------------------------------------------------|
b-------1------1--------1-----1-----1-----1-----3-----3-|
g-----0---0---0--------2-2---2-2---2-2---2-2---4-4---4--|
d---2------2-2--------2---2-2---2-3---3-3---3-5---5-5---|
a-3---------3----3-2-0-----0-----3-----3-----5-----5----|
e-------------------------------------------------------|

guitar 2 at the 5th time of the guitar intro
x5

e-3--3-3-3---5--5-5-5---1--1-1-1---3--3-3-3------------|
b-5--5-5-5---5--5-5-5---1--1-1-1---3--3-3-3------------|
g-5--5-5-5---5--5-5-5---2--2-2-2---4--4-4-4------------|
d-5--5-5-5---7--7-7-7---3--3-3-3---5--5-5-5------------|
a-3--3-3-3---7--7-7-7---3--3-3-3---5--5-5-5------------|
e-3--3-3-3---5--5-5-5---1--1-1-1---3--3-3-3------------|


solo starts at guitar 2 3rd time

e----------------------------------------------------------------|
b-13-12-13-15-13-12--13-12-13-15-13-17-15-17-15-13-12-13-12-8-10-|
g----------------------------------------------------------------|
d----------------------------------------------------------------|
a----------------------------------------------------------------|
e----------------------------------------------------------------|

first song of the Pollos!!!!!!!
Tap to rate this tab
 
# A B C D E F G H I J K L M N O P Q R S T U V W X Y Z