Song name
# A B C D E F G H I J K L M N O P Q R S T U V W X Y Z

Misc Unsigned Bands - Feed The Birds - Disneys Mary Poppins With Bird Lady tab

e|0------------------000-----------------|
B|-653---010----0-------653---010--------|
G|----542---2245-212-------542---2421-12-|
D|----------------------------------2----|
A|---------------------------------------|
E|---------------------------------------|
Early each day to the steps of saint pauls, the little old bird woman comes.

In her own special way to the people she calls, "come buy my bags full of crumbs"


e|-11131-----11131-------------------------|
B|------6535-----5---556531---10--24221-12-|
G|2---------2-------------224---------2----|
D|-----------------------------------------|
A|-----------------------------------------|
E|-----------------------------------------|

"Come feed the little birds, show them you care, and you'll be glad if you do.
Their young ones are hungry, their nests are so bare, all it takes is tuppence from you."

e|---252-25955457--301252-----------------------|
B|-25---5---------------5-7 10 7 5   5 4 5 7 5--|
G|2---------------------------------------------|
D|----------------------------------------------|
A|----------------------------------------------|
E|----------------------------------------------|

"feed the birds, tuppence a bag. Tuppence, tuppence, tuppence a bag.
Feed the birds," that's what she cries. While overhead, her birds fill the skies
Tap to rate this tab
# A B C D E F G H I J K L M N O P Q R S T U V W X Y Z