Song name
# A B C D E F G H I J K L M N O P Q R S T U V W X Y Z

Misc Unsigned Bands - Hats For My Hands-ribbon Bombs tab

Help us improve GuitareTab! Take a short survey!
Hats for my Hands
Ribbon Bombs

Tabbed by ehhhhhh a fan, not a member of the band, incidentally I just think David 
iss great, that’s why iv only tabbed his parts, not coz its Dave doing this tab, anyway have 
wont tho


1)Strum Lightly
e---------------------------------------------------------|
B---------------------------------------------------------|
G---------------------------------------------------------|
D---------------------------15-17-14-15-------------------|
A-15/14-14-14-14-14-x-x(x3)-x- x--x---x-------------------|
E-0--0--0--0--0--0--0-0-----0--0--0---0-------------------|


2)Hit a lovely distortion pedal and play this as the rest
of the Hats join, play the whole thing 3 times
E-------------------------------------------------------|
B-------------------------------------------------------|
G-17/16--16--16--16--16---------------------------------|
D-x--x---x----x---x--x--(x3)-15--17--14--15-------------|
A-15/14--14--14--14--14------x---x----x---x-------------|
E-0---0---0---0---0---0------0---0----0---0-------------|


3)Play this a good few times, lets say six
e-------------------------------------------------------|
B-----------7-----------8---8---------7-----------5---0-|
G----9-9------9---9-9-----9-----9-9-----9---8-8-----8---|
D-10-----10---------------------------------------------|
A---------------7-----7---------------------------------|
E-----------------------------8-----8-----7-----7-------|

4)Good time to relax and look for hot babes while your
picking one open string, its harder than u mite think, and fun
e-------------------------------------------------------|
B-------------------------------------------------------|
G-------------------------------------------------------|
D-------------------------------------------------------|
A-0-0-0-0-0-0-0-0-0-0-0-0-0-0-0-0-0-0-0-0-0-0-0-0-0-0-0-|
E-------------------------------------------------------|

5)Strum each of these once, slowly and gently, if u do it right
they will give u a happy ending
e-0-0-0-0--0-0-------------------------------------------|
B-5-5-5-5--5-3-------------------------------------------|
G-6-5-6-5--4-4---(x2)------------------------------------|
D-7-7-7-7--5-5-------------------------------------------|
A-0-0-0-0--0-0-------------------------------------------|
E--------------------------------------------------------|

6)Now strum these to your hearts content, a downward action of 8 strums each usually 
me going, then hit your “D” to the Distortion pedal on the third bar
e-0--0--7--5---------------------------------------------|
B-5--5--8--7---------------------------------------------|
G-6--7--9--7-----(x4)------------------------------------|
D-7--7--9--7---------------------------------------------|
A-0--0--7--5---------------------------------------------|
E-------7--5---------------------------------------------|

7)Now repeat steps 1 and 2

8)Now this is where it all gets hazy and crazy with even more
Distortion……….brilliant
e--------------------------------------------------------|
B--------------------------------------------------------|
G--------------------------------------------------------|
D--------------------------------------------------------|
A--------------------------------------------------------|
E-0-0-0-x-x-x-x-0-0-0-x-x-x-x-0-0-0-x-x-x-x-0-0-0-x-x-x--|

Hope you enjoyed my 8 step plan to playing a Hats for My Hands song.
Now go out there and do it yourself coz if you believe in yourself you can achieve 
in the words of Danny Dyer “Bollox”.
Related for Hats For My Hands-ribbon Bombs tab