Song name
# A B C D E F G H I J K L M N O P Q R S T U V W X Y Z

Misc Unsigned Bands - Sacrifice Your Beliefs - Bury Me Down tab

-------------------------------------------------------------------------------
		   Bury me down - Sacrifice your beliefs
-------------------------------------------------------------------------------
Tabbed by: Stephen Collyer
Email: Badboycoll@hotmail.com

Tuning: D-A-D-G-B-E (Drop D)
 
  Guitar 2
e|-------------------------------------------------------------------------|
B|-------------------------------------------------------------------------|
G|-------------------------------------------------------------------------|
D|--------10---------10-------------10-------------------------------------|
A|---8-10-------8-10---------8--10------7875753532-------------------------|
D|-00-0--0--0-88-8--8--8-1010-10--10--10-----------------------------------|
   .. .  .  . .. .  .  .  ..   .   .   .
  
  Guitar 1
e|-------------------------------------------------------------------------|
B|-------------------------------------------------------------------------|
G|-------------------------------------------------------------------------|
D|-------------------------------------------------------------------------|
A|-00----------88---------1010-----------/////////////---------------------|
D|-00----------88---------1010-------------Pickslide-----------------------|
   ..          ..          ..
Tap to rate this tab
# A B C D E F G H I J K L M N O P Q R S T U V W X Y Z