Song name
# A B C D E F G H I J K L M N O P Q R S T U V W X Y Z

Misc Unsigned Bands - Audio Journey - Angel tab

Help us improve GuitareTab! Take a short survey!
-------------------------------------------------------------------------------
			     Angel - Audio Journey
-------------------------------------------------------------------------------
Tabbed by:Audio Journey
Email:

Tuning:Standard


INTRO
e|-------------------------------------------------------------------------|
B|-0---------------------------0------3------------------------3--------------------|
G|-----2-------------------2--------------2----------------2------------------------|
D|---------2----------2-----------------------0----0----0---------------------------|
A|--------------1----------------------------------1--------------------------------|
E|--------------0-------------------------------------------------------------------|

e|-----------------------------------------------------------------------------------|
B|------------------------------------------------------0-----------------2----------|
G|--0-----------------------0----3-------------------3-----2------------2------------|
D|------2---------------2-----------2-------------2-----------2------2---------------|
A|-----------3-------3------------------1------1------------------1------------------|
E|---------------2--------------------------1---------------------0------------------|

e|--0---------------------0------------------------------------------------------|
B|-----2--------------2----------------------------------------------------------|
G|----------2------2-------------------------------------------------------------|
D|--------------1----------------------------------------------------------------|
A|-------------------------------------------------------------------------------|
E|-------------------------------------------------------------------------------|


VERSE               (1st Guitar Colton)
e|--0---0---0-----0--0--0-0---2-2-2----1-1--1---------------------------------------------|
B|--0---0---0-----1--1--1-1---3-3-3----1-1--1---------------------------------------------|
G|--2---2---2-----0--0--0-0---2-2-2----2-2--2---------------------------------------------|
D|--2---2---2-----2--2--2-2---0-0-0----3-3--3---------------------------------------------|
A|--1---1---1-----3--3--3-3---0-0-0----0-0--0---------------------------------------------|
E|--0---0---0-----0--0--0-0---0-0-0----0-0--0---------------------------------------------|


                              (2nd Guitar Tyler)
e|--0---0---0---0---0-----0---0---0---0---0----0---0---0---0--|
B|--0---0---0---0---0-----0---0---0---0---0----0---0---0---0--|
G|--2---2---2---3---2-----2---2---2---3---2----2---2---2---3--|
D|--2---2---2---2---2-----2---2---2---2---2----2---2---2---2--|
A|--0---3---0---0---3-----0---3---0---0---3----0---3---0---0--|
E|------------------------------------------------------------|

CHORUS-               (1st Guitar Colton)
e|--3------------0--------------0-----------0------------------------------------|
B|--2------------0--------------3-----------0------------------------------------|     
8)       (x's 8)    (x's 8)     (x's 8)
G|--0------------0--------------2-----------3------------------------------------|
D|--0------------2--------------0-----------2------------------------------------|
A|--2------------3--------------1-----------1------------------------------------|
E|--2------------2--------------0-----------0------------------------------------|


CHORUS-                   (2nd Guitar Tyler)
e|--0------------------------------------------------------------------------------------------|
B|--3-------------------------------------------------------------------------|      ( X's 20--| times)
G|--2------------------------------------------------------------------------------------------|
D|--2------------------------------------------------------------------------------------------|
A|---------------------------------------------------------------------------------------------|
E|---------------------------------------------------------------------------------------------|


SOLO
e|--0-/-0--0-----|
B|--3-/-5--5-----|
G|--2-/-4--4-----|                 (x's 2)
D|--0-/-0--0--0--|
A|--1-/-3--3--3--|
E|--0-/-0--0--0--|


OUTRO
e|-------------------------------------------------------------------------|
B|-0---------------------------0------3------------------------3--------------------|
G|-----2-------------------2--------------2----------------2------------------------|
D|---------2----------2-----------------------0----0----0---------------------------|
A|--------------1----------------------------------1--------------------------------|
E|--------------0-------------------------------------------------------------------|

e|-----------------------------------------------------------------------------------|
B|------------------------------------------------------0-----------------2----------|
G|--0-----------------------0----3-------------------3-----2------------2------------|
D|------2---------------2-----------2-------------2-----------2------2---------------|
A|-----------3-------3------------------1------1------------------1------------------|
E|---------------2--------------------------1---------------------0------------------|

e|---------------------------------------------------------------------------------------|
B|---------------------------------------------------------------------------------------|
G|--3/4/3-----2/3/2----------------------------------------------------------------------|
D|---------------------0--2--------------------------------------------------------------|
A|---------------------------------------------------------------------------------------|
E|---------------------------------------------------------------------------------------|

Lyrics-
Angel-
Noises playing in my ears
hiding from my thoughts and fears
you stole my heart away
but you left me with a feeling
as i sit alone in church

chorus:
Now I'm praying
that we will meet again
and i'm hoping that you'll be coming in.....to my life

Regular:
Your lips lust with venom
you just left my sight
I already, miss you

As long as I live you'll always be.....in my heart.

Chorus:
will you speak thoses words
that sound like morning birds.
So as you fly away
You'll think of me someday

Solo

Regular:
All though these events occur my heart still wants her.

ORDER OF SONG

-Intro
-Verse
-Chorus
-Solo
-Verse
-Chorus
-Verse
-Outro



| /  slide up
| \  slide down
| h  hammer-on
| p  pull-off
| ~  vibrato
| +  harmonic
| x  Mute note
===============================================================================
Related for Audio Journey - Angel tab