Song name
# A B C D E F G H I J K L M N O P Q R S T U V W X Y Z

Misc Unsigned Bands - Carpe Diem - Dead And Famous tab

i was looking for this, none were here soo i decided to tab myself
i dont know what tunning but it sounds good, standard, and two steps down (C F Bb Eb G C).

dont shit on me cause im not 100% correct. 
its only my second tab,

Intro
-------------------------------------------------------|
-------------------------------------------------------|
-------------------------------------------------------|
------------5-5-5-5-----------7-7-7-7-----------5-5-5-5|
------------7-7-7-7-----------9-9-9-9-----------3-3-3-3|
-0-0-0-0-0-0-------0-0-0-0-0-0-------0-0-0-0-0-0-------|

--------------------------------------|
--------------------------------------|
--------------------------------------|
--------------------------------------|
-8-8-8-8-8-8-8-8-7-7-7-7-7-4-4-4-4-4-4|
--------------------------------------|

repeat however many times
Tap to rate this tab
# A B C D E F G H I J K L M N O P Q R S T U V W X Y Z