Guitaretab - guitar tabs
Song name
# A B C D E F G H I J K L M N O P Q R S T U V W X Y Z

Misc Unsigned Bands - Mollys Nightmare - Halloween tab

Drop D
INTRO:

Guitar 1
E------5-----5----------5-----5------|
B----3-----3-----3----3-----3-----3--|
G--2-----2-----2----3-----3-----3----| 5x
D------------------------------------|
A------------------------------------|
D------------------------------------|

After 2 times above, Guitar 2 comes in with:

Guitar 2
E------------------------------------|
B------------------------------------|
G--2-2-2-2-2-2-2-2--3-3-3-3-3-3-3-3--| 3x
D--0-0-0-0-0-0-0-0--x-x-x-x-x-x-x-x--|
A--0-0-0-0-0-0-0-0--1-1-1-1-1-1-1-1--|
D--0-0-0-0-0-0-0-0-------------------|

then

Guitar 1
E------5-----5----------5-----------------|
B----3-----3-----3----3-------------------|
G--2-----2-----2----3-----3---------------|
D-----------------------------------------|
A----------------------------Pickslide----|
D----------------------------Pickslide----|

Guitar 2
E------------------------------------------|
B------------------------------------------|
G--2-2-2-2-2-2-2-2--3-3-3-3----------------|
D--0-0-0-0-0-0-0-0--x-x-x-x----------------|
A--0-0-0-0-0-0-0-0--1-1-1-1---Pickslide----|
D--0-0-0-0-0-0-0-0------------Pickslide----|


VERSE: (Guitar 2 - palm mute xs)

Guitar 1: (Tremolo picking)
E-----------------------------------------------|
B-----------------------------------------------|
G----7------9-----10-----9-----10-----9-----5---| 2x
D--(16x)--(16x)--(16x)--(6x)--(4x)--(4x)--(2x)--|
A-----------------------------------------------|
D-----------------------------------------------|

Guitar 2:
E---------------------------------------------------------------|
B---------------------------------------------------------------|
G---------------------------------------------------------------|
D--7-xxxx-7-xxxx-7-xx-9-xxxx-9-xxxx-9-xx-10-xxxx-10-xxxx-10-xx--|
A--5-xxxx-5-xxxx-5-xx-7-xxxx-7-xxxx-7-xx--8-xxxx--8-xxxx--8-xx--|
D--5-xxxx-5-xxxx-5-xx-7-xxxx-7-xxxx-7-xx--8-xxxx--8-xxxx--8-xx--|
(continued)
E-----------------------|
B-----------------------|
G-----------------------| 2x
D--9-xxxx-10-xx-9-xx-5--|
A--7-xxxx--8-xx-7-xx-3--|
D--7-xxxx--8-xx-7-xx-3--|


Guitar 1:
E-----------------------------------------------|
B-----------------------------------------------|
G----7------9-----10-----9-----10-----9-----5---| 2x
D----x------x------x-----x------x-----x-----x---|
A----5------7------8-----7------8-----7-----3---|
D--(16x)--(16x)--(16x)--(8x)--(4x)--(4x)--(4x)--|

Guitar 2:
E---------------------------------------------------------------|
B---------------------------------------------------------------|
G---------------------------------------------------------------|
D--7-xxxx-7-xxxx-7-xx-9-xxxx-9-xxxx-9-xx-10-xxxx-10-xxxx-10-xx--|
A--5-xxxx-5-xxxx-5-xx-7-xxxx-7-xxxx-7-xx--8-xxxx--8-xxxx--8-xx--|
D--5-xxxx-5-xxxx-5-xx-7-xxxx-7-xxxx-7-xx--8-xxxx--8-xxxx--8-xx--|
(continued)
E-----------------------|
B-----------------------|
G-----------------------| 2x
D--9-xxxx-10-xx-9-xx-5--|
A--7-xxxx--8-xx-7-xx-3--|
D--7-xxxx--8-xx-7-xx-3--|

CHORUS:

Guitar 1:
E----------------------------------------------|
B----------------------------------------------|
G-------9/10\9-------6~-------9/10\9-------3~--| 4x
D--00-0-x/-x\x--00-0-x~--00-0-x/-x\x--0000-x~--|
A--00-0-7/-8\7--00-0-4~--00-0-7/-8\7--0000-1~--|
D--00-0---------00-0-----00-0---------0000-----|
   .. .         .. .     .. .         ....

Guitar 2:
E--------------------------------------|
B-------9~-------9~-------9~-------9~--|
G-------7~-------7~-------7~-------7~--| 4x
D--00-0-6~--00-0-6~--00-0-6~--0000-6~--|
A--00-0-----00-0-----00-0-----0000-----|
D--00-0-----00-0-----00-0-----0000-----|
   .. .     .. .     .. .     ....


Guitar 1:
E----------------------------------------------|
B----------------------------------------------|
G-------9/10\9-------6~-------9/10\9-------3~--| 4x
D--00-0-x/-x\x--00-0-x~--00-0-x/-x\x--0000-x~--|
A--00-0-7/-8\7--00-0-4~--00-0-7/-8\7--0000-1~--|
D--00-0---------00-0-----00-0---------0000-----|

Guitar 2:
E--------------------------------------|
B-------9~-------9~-------9~-------9~--|
G-------7~-------7~-------7~-------7~--| 4x
D--00-0-6~--00-0-6~--00-0-6~--0000-6~--|
A--00-0-----00-0-----00-0-----0000-----|
D--00-0-----00-0-----00-0-----0000-----|


INTERLUDE:

Guitar 1:
E------------------------------------|
B------------------------------------|
G--12-9----12-9----11-------11-------|
D-------9-------9-----12-9-----12-9--|
A------------------------------------|
D------------------------------------|
(continued)
E------------------------------------|
B--12--------------------------------|
G-----9----12-9----11-------11-------|
D-------9-------9-----12-9-----12-9--|
A------------------------------------|
D------------------------------------|

[ Tab from: http://www.guitaretab.com/m/misc-unsigned-bands/96834.html ]
Guitar 2:
E-------------------------|
B-------------------------|
G--12~---12~---11~---11~--| 2x
D---x-----x-----x-----x---|
A--10~---10~----9~----9~--|
D-------------------------|


VERSE 2:

Guitar 1: (Tremolo picking)
E-----------------------------------------------|
B-----------------------------------------------|
G----7------9-----10-----9-----10-----9-----5---| 2x
D--(16x)--(16x)--(16x)--(6x)--(4x)--(4x)--(2x)--|
A-----------------------------------------------|
D-----------------------------------------------|

Guitar 2:
E---------------------------------------------------------------|
B---------------------------------------------------------------|
G---------------------------------------------------------------|
D--7-xxxx-7-xxxx-7-xx-9-xxxx-9-xxxx-9-xx-10-xxxx-10-xxxx-10-xx--|
A--5-xxxx-5-xxxx-5-xx-7-xxxx-7-xxxx-7-xx--8-xxxx--8-xxxx--8-xx--|
D--5-xxxx-5-xxxx-5-xx-7-xxxx-7-xxxx-7-xx--8-xxxx--8-xxxx--8-xx--|
(continued)
E-----------------------|
B-----------------------|
G-----------------------| 2x
D--9-xxxx-10-xx-9-xx-5--|
A--7-xxxx--8-xx-7-xx-3--|
D--7-xxxx--8-xx-7-xx-3--|


Guitar 1:
E-----------------------------------------------|
B-----------------------------------------------|
G----7------9-----10-----9-----10-----9-----5---| 2x
D----x------x------x-----x------x-----x-----x---|
A----5------7------8-----7------8-----7-----3---|
D--(16x)--(16x)--(16x)--(8x)--(4x)--(4x)--(4x)--|

Guitar 2:
E---------------------------------------------------------------|
B---------------------------------------------------------------|
G---------------------------------------------------------------|
D--7-xxxx-7-xxxx-7-xx-9-xxxx-9-xxxx-9-xx-10-xxxx-10-xxxx-10-xx--|
A--5-xxxx-5-xxxx-5-xx-7-xxxx-7-xxxx-7-xx--8-xxxx--8-xxxx--8-xx--|
D--5-xxxx-5-xxxx-5-xx-7-xxxx-7-xxxx-7-xx--8-xxxx--8-xxxx--8-xx--|
(continued)
E-----------------------|
B-----------------------|
G-----------------------| 2x
D--9-xxxx-10-xx-9-xx-5--|
A--7-xxxx--8-xx-7-xx-3--|
D--7-xxxx--8-xx-7-xx-3--|
CHORUS:

Guitar 1:
E----------------------------------------------|
B----------------------------------------------|
G-------9/10\9-------6~-------9/10\9-------3~--| 4x
D--00-0-x/-x\x--00-0-x~--00-0-x/-x\x--0000-x~--|
A--00-0-7/-8\7--00-0-4~--00-0-7/-8\7--0000-1~--|
D--00-0---------00-0-----00-0---------0000-----|
   .. .         .. .     .. .         ....

Guitar 2:
E--------------------------------------|
B-------9~-------9~-------9~-------9~--|
G-------7~-------7~-------7~-------7~--| 4x
D--00-0-6~--00-0-6~--00-0-6~--0000-6~--|
A--00-0-----00-0-----00-0-----0000-----|
D--00-0-----00-0-----00-0-----0000-----|
   .. .     .. .     .. .     ....


Guitar 1:
E----------------------------------------------|
B----------------------------------------------|
G-------9/10\9-------6~-------9/10\9-------3~--| 2x
D--00-0-x/-x\x--00-0-x~--00-0-x/-x\x--0000-x~--|
A--00-0-7/-8\7--00-0-4~--00-0-7/-8\7--0000-1~--|
D--00-0---------00-0-----00-0---------0000-----|

Guitar 2:
E--------------------------------------|
B-------9~-------9~-------9~-------9~--|
G-------7~-------7~-------7~-------7~--| 2x
D--00-0-6~--00-0-6~--00-0-6~--0000-6~--|
A--00-0-----00-0-----00-0-----0000-----|
D--00-0-----00-0-----00-0-----0000-----|


OUTRO:

BOTH GUITARS:
E--------------------------------------------|
B--------------------------------------------|
G-------7~-------9~-------10~-------12-10-9--| 2x
D--00-0-x---00-0-x---00-0--x---00-0--x--x-x--|
A--00-0-5~--00-0-7~--00-0--8~--00-0-10--8-7--|
D--00-0-----00-0-----00-0------00-0----------|
   .. .     .. .     .. .      .. .
(continued)
E------------------------------------------------------|
B------------------------------------------------------|
G-------7777-------9999--------10101010-------12-10-9--| 2x
D--00-0-xxxx--00-0-xxxx---00-0--x-x-x-x--00-0--x--x-x--|
A--00-0-5555--00-0-7777---00-0--8-8-8-8--00-0-10--8-7--|
D--00-0-------00-0--------00-0-----------00-0----------|
   .. .       .. .        .. .           .. .
(continued)
E------------------------------------------------------|
B------------------------------------------------------|
G-------7777-------9999--------10101010-------12-10-9--| 2x
D--00-0-xxxx--00-0-xxxx---00-0--x-x-x-x--00-0--x--x-x--|
A--00-0-5555--00-0-7777---00-0--8-8-8-8--00-0-10--8-7--|
D--00-0-------00-0--------00-0-----------00-0----------|
(continued)
E-----------------------------------------------------|
B-----------------------------------------------------|
G-------7777-------9999-------10101010-------12-10-9--| 2x
D--0000-xxxx--0000-xxxx--0000--x-x-x-x--0000--x--x-x--|
A--0000-5555--0000-7777--0000--8-8-8-8--0000-10--8-7--|
D--0000-------0000-------0000-----------0000----------|
(continued)
E----------|
B----------|
G--10~~~~--|
D---x------|
A---8~~~~--|
D----------|
Related for Mollys Nightmare - Halloween tab