Song name
# A B C D E F G H I J K L M N O P Q R S T U V W X Y Z

Misc Unsigned Bands - Gestapo 666 - Gestapo Of Satan tab

'Gestapo of Satan' by Gestapo 666
    transcripted by elathen.


INTRO
|--------------------------------------------|
|--------------------------------------------|
|-------------10-------------------9---------| 
|-------------------11-----------------10----|  repeat
|--9--10----------------8---9----------------| 
|--------------------------------------------|

1ST RIFF
|--------------------------------------------|
|-----------6-------6-------5-----------5----| 
|-----4--------4---------3------3------------| 
|--------------------------------------------|  repeat
|--------------------------------------------| 
|--------------------------------------------|

2ND RIFF
|-----------------------------------------------------|
|-----------------------------------------------------|
|---7---10--9---7---10---7---5---8---7---5---7---5----| 
|---8---8---8---8----8---8---6---6---6---6---6---6----|  repeat
|-----------------------------------------------------|
|-----------------------------------------------------| 

3RD RIFF
|--------------------------------------|
|--------------------------------------| 
|--------------------------------------| 
|------4------8-------7-------8--------|  repeat
|------5------9-------8-------9--------| 
|--------------------------------------|

4TH RIFF
|-------------------------------|
|-------------------------------| 
|-------------------------------| 
|------11------9----------------|  repeat
|------12-----10----------------|
|-------------------------------|

All notes except the intro are tremolo picked.
Final riff is the same as intro.
Tap to rate this tab
# A B C D E F G H I J K L M N O P Q R S T U V W X Y Z