Song name
# A B C D E F G H I J K L M N O P Q R S T U V W X Y Z

Misc Unsigned Bands - The Pledge Drive - Musket tab

Tuning: Drop D
Song: Musket

just follow the tab right thru...i do my best to name the parts of the songs b/c it
really has much of a chorus...this is how it is live there might be a few tracks going 
at
time i'm playing on the e.p. but yea...enjoy good luck with the super dive bomb the 
for how to do it is at the end

key:
. = palm muting
b = bend
r = release
h = hammer on
p = pull-off
v = vibrato
<14> = pinch harmonic
(12) = natural harmonic
(5)v^ = super dive bomb (explained at end)

verse: use phaser (starts when full band comes in; 2 measures after 1st build-up)
---------------------------------------------|
---------------------------------------------| repeat until 2nd build-up
----12------12------12-----------12-11----9--|
-------9-------9------------9-10-------12----|
-10------10------10----9-10------------------|
---------------------------------------------|

2nd build-up:
-----------------|
-0-00-0-00-0-0-0-|
-2-22-2-22-2-2-2-|
-2-22-2-22-2-2-2-|
-0-00-0-00-0-0-0-|
-----------------|
   ..   ..   .

chorus:
-------------------------------------------------|
-------------------------------------------------|
----12-11b12r11-------12-11b12r11----14-12-11-12-|
-14-------------12-14-------------12-------------|
-------------------------------------------------|
-------------------------------------------------|

----------------------------------------------------|
----------------------------------------------------|
----12-11b12r11-------12-11b12r11----14-12-11h12h14-|
-14-------------12-14-------------12----------------|
----------------------------------------------------|
----------------------------------------------------|

-------------------------------------------------|
-------------------------------------------------|
----12-11b12r11-------12-11b12r11----14-12-11-12-|
-14-------------12-14-------------12-------------|
-------------------------------------------------|
-------------------------------------------------|

----------------------------------------------------|
----------------------------------------------------|
----12-11b12r11-------12-11b12r11----14-12-11h12h14-|
-14-------------12-14-------------12----------------|
----------------------------------------------------|
----------------------------------------------------|

-------------------------------------------------|
-------------------------------------------------|
----12-11b12r11-------12-11b12r11----14-12-11-12-|
-14-------------12-14-------------12-------------|
-------------------------------------------------|
-------------------------------------------------|

---------------------------|
---------------------------|
-999-111111111111-12121212-|
-xxx-x-x-x-x-x-x--x-x-x-x--|
-777-9-9-9-9-9-9--10101010-|
---------------------------|

solo:
------------------------------------------15p12----15p12----15p12----15p12----15--------|
------------------------------------15-15-------15-------15-------15-------15-----------|
-------------12-14v-<14>b-12h14--------------------------------------------------(5)v---|
-------12-14---------------------12-----------------------------------------------------|
-12-14----------------------------------------------------------------------------------|
----------------------------------------------------------------------------------------|

----------------------------------------------------15p13p12-15p13p12-15p13p12-15p13p12-|
----------------------------------------------------------------------------------------|
-------------12-14-14b14.5r14--14-12----------------------------------------------------|
-------12-14-------------------------14-12----------------------------------------------|
-12-14-------------------------------------14-13-12-------------------------------------|
----------------------------------------------------------------------------------------|

-17p15p13-17p15p13-17p15p13-17p15p13-19p17p15-19p17p13-19p17p13-19p17p15-|
-------------------------------------------------------------------------|
-------------------------------------------------------------------------|
-------------------------------------------------------------------------|
-------------------------------------------------------------------------|
-------------------------------------------------------------------------|

-20p19p17-20p19p17-20p19p17-20p19p17-22b-|
-----------------------------------------|
-----------------------------------------|
-----------------------------------------|
-----------------------------------------|
-----------------------------------------|

bridge:
------------------------------------------------|
------------------------------------------------|x2
-12121212-1111-12121212-1111-7777-77-9999-9-7/9-|
-x-x-x-x--x-x--x-x-x-x--x-x--xxxx-xx-xxxx-x-x-x-|
-10101010-9-9--10101010-9-9--5555-55-7777-7-5/7-|
------------------------------------------------|

----------00000000-------------------|
----------33333333-------------------|
----------22222222-------------------|
-222------00000000-55555555-77777777-|
-222------00000000-55555555-77777777-|
-222------00000000-55555555-77777777-|

----------00000000-------------------|
----------33333333-------------------|
----------22222222-------------------|
-22222222-00000000-55555555-77777777-|
-22222222-00000000-55555555-77777777-|
-22222222-00000000-55555555-77777777-|

----------00000000-------------------|
----------33333333-------------------| (light palm mute,slowly release the a)
----------22222222-------------------|
-22222222-00000000-55555555-77777777-|
-22222222-00000000-55555555-77777777-|
-22222222-00000000-55555555-77777777-|
                            ........

end:
-----0~---------------x---|
-----3~---------------5~--|
-----2~---------------4~--|
-2~--0~--5~--77777777-2~--|
-2~--0~--5~--77777777-2~--|
-2~--0~--5~--77777777-2~--|
             ........

EXPLAINATION OF PART IN SOLO: SUPER DIVEBOMB!!!
the (5) is a natural harmonic, which you get by placing a finger over the metal bar
the frets (in this case the 5th and 6th frets) and you pick the string; i'll assume everyone
what i'm talking about. to get the super divebomb you need 2 things. first, you need a 
with a whammy bar
and a locking tremolo, and you need a pedal with a divebomb effect on it (i use a
not the best thing to use but i get a sick dive and squeal out of it this way.) Okay, first
you have to do is a divebomb on the guitar. do this by playing the natural harmonic, but 
afterwards use
the whammy bar and dive that in (this will make the harmonic drop in sound) and then
it back outpretty far (this will give it the squeal). there's actually a really good video
youtube where synyster gates from avenged sevenfold does them; just look for the if 
having trouble it goes
more in depth and you can actually hear normal divebombs to make sure you're getting it.
this a while until you get used to it and you start getting good at it. work around
different natural harmonics when practicing, so you can experiment with different 
sounds. when you
get good, the next part is using the pedal. first off, put the pedal onto a dive bomb
next, bring the pedal all the way up (similar to having the least amount of wah if using a
pedal) and as you drop the whammy bar, drop the pedal. then, as you pull out the whammy 
bring back
the pedal to the original position. this is exactly how to get the sound. so...good luck
it and enjoy!

p.s. there is a slight delay on the e.p. version which i do live sometimes...just use a
pedal, simple enough
Tap to rate this tab
 
# A B C D E F G H I J K L M N O P Q R S T U V W X Y Z