Song name
# A B C D E F G H I J K L M N O P Q R S T U V W X Y Z

Misc Unsigned Bands - A Synoptical Reflex - September Seventeenth tab

Listen to the song to get the timing. Song can be found at http://artists.ultimate-
guitar.com/asynopticalreflex/music/

A tuned to G


e-------------------------------------|
B-------------------------------------|
G-------0--------0--------0--------0--|
D---0--------0--------2--------2------|
G-0---0----0---0----0---0----0---0----|
E-------------------------------------|

e-------------------------------------|
B-------------------------------------|
G-------0--------0--------4--------5--|
D---0--------0--------2--------2------|
G-0---0----0---0----0---0----0---0----|
E-------------------------------------| Little pause

e-----------------------------------------------------|
B-----------------------------------------------------|
G-----------------------------------------------------|
D-55-55-44-44--55-55-44-44--55-55-44-44--55-55-44-44--|
G-44-44-44-44--44-44-44-44--55-55-55-55--55-55-55-55--|
E-22-22-22-22--22-22-22-22--33-33-33-33--33-33-33-33--| X2

e-------------------------------------|
B-------------------------------------|
G---0--------0--------0--------0------|
D-------0--------0--------2--------2--|
G-0---0----0---0----0---0----0---0----|
E-------------------------------------|

e-------------------------------------|
B-------------------------------------|
G---0--------0--------0--------0------|
D-------0--------0--------2--------2--|
G-0---0----0---0----0---0----0---0----|
E-------------------------------------|

e-----------------------------------------|
B-----------------------------------------|
G---4---4---4---5----4---4---4---5--5-4-0-|
D-----------------------------------------|
G-0---0---0---0----0---0---0---0----------|
E-----------------------------------------|

e-----------------------------------------------------|
B-----------------------------------------------------|
G-----------------------------------------------------|
D-55-55-44-44--55-55-44-44--55-55-44-44--55-55-44-44--|
G-44-44-44-44--44-44-44-44--55-55-55-55--55-55-55-55--|
E-22-22-22-22--22-22-22-22--33-33-33-33--33-33-33-33--| X2

End on

e---
B---
G---
D-5~
G-4~
E-2~

Cheers.
Tap to rate this tab
# A B C D E F G H I J K L M N O P Q R S T U V W X Y Z