Song name
# A B C D E F G H I J K L M N O P Q R S T U V W X Y Z

Misc Unsigned Bands - Lethal Dose - Apocalypse tab

Song: Apocalypse
Artist: Lethal Dose
Album: Dead Man's Hypocrisy

standard tuning (eBGDAE)

intro...

e--------------------------------------------------------------------|
B-12~------15~----------------------------------------x2-------------|
G-------------------------------------------------/--------\---------|
D-------------------------------------------------|--------|---------|
A--------------------\\\\\\\\\\\\\\\\\\\\\\\\\\\\-----5-5------------|
E------0---------0---\\\\\\\\\\\\\\\\\\\\\\\\\\\\--0--3-3-0----------|

verse...(same for verse one, and two.)        BRIDGE (below)

e----------------------------------|---------------------------------|
B-----USE WAH----------------------|-------10/12~------15~\7---------|
G----------------------------------|---------------------------------|
D-------------------5~~~---7~~~----|---------------------------------|
A-------------------3~~~---5~~~--X4|---------------------------------|
E-0000000000000000-----------------|-00------------00----------------|

chorus...

e--------------------------------------------------------------------|
B--------------------------------------------------------------------|
G--5-------7-7------9-9-9-7------------------------------------------|
D--5-------7-7------9-9-9-7-------X4---------------------------------|
A--3-------5-5------7-7-7-5------------------------------------------|
E-----0-0-------0-0--------------------------------------------------|
p.m.  . .       . .

VERSE AGAIN
BRIDGE
CHORUS
solo (not written yet)

Ending
e------------------------|
B------------------------|
G---5-----7--------------|
D---5-----7----let ring--|
A---3-----5-------X6-----|
E------------------------|
Tap to rate this tab
# A B C D E F G H I J K L M N O P Q R S T U V W X Y Z