Song name
# A B C D E F G H I J K L M N O P Q R S T U V W X Y Z

Misc Unsigned Bands - Underlying Expressions - Its On The Tip Of My Tongue tab

---------------------------------------------------------------------------
           Its On The Tip of My Tongue - Underlying Expressions
-------------------------------------------------------------------------------
Tabbed by: Tony Laethem
Email:

Tuning: Standard

Intro

e|------------------------------|
B|--8888-7777-7777-3333-555-333-|
G|------------------------------|
D|--xxxx-xxxx-xxxx-xxxx-xxx-xxx-| x4
A|--7777-7777-7777-3333-555-333-|
E|------------------------------|

Verse Chords

e|---5-|
B|-3-3-|
G|-----|
D|-x---|
A|-3-x-|
E|---2-|

Chorus Chords
e|-------5-|
B|-5-7-3-3-|
G|---------|x2
D|-x-x-x---|
A|-3-5-3-x-|
E|-------2-|

e|---------------|
B|-5-7-8-7-5-7-3-|
G|---------------|
D|-x-x-x-x-x-x-x-|
A|-3-5-7-5-3-5-3-|
E|---------------|

Bridge Chords

e|-3-3-3-3-|
B|-3-3-3-3-|
G|---------|
D|-2-2---2-|
A|-3-2-2-3-|
E|-----3---|

| /  slide up
| \  slide down
| h  hammer-on
| p  pull-off
| ~  vibrato
| +  harmonic
| x  Mute note
===============================================================================
Tap to rate this tab
 
# A B C D E F G H I J K L M N O P Q R S T U V W X Y Z