Song name
# A B C D E F G H I J K L M N O P Q R S T U V W X Y Z

Misc Unsigned Bands - Set Back - Overdone tab

Help us improve GuitareTab! Take a short survey!
Artist: Set Back
Song: Overdone
Album: Conquered
Tuning: Standard

Riff One
E--------------------------------------------------|
B--------------------------------------------------|
G--------------------------------------------------|
D-11-10----------5-4~--11-11-11-11-10-10-10-10--5~-|
A-11-10----------5-4~--11-11-11-11-10-10-10-10--5~-|
E-9--8--88888888-3-2~--9--9--9--9--8--8--8--8---3~-|
        ........       .  .  .  .  .

Riff Two
E-----------------------------------------|
B-----------------------------------------|
G-----------------------------------------|
D-11--11-11-11--10--10-10-10--5-555-5-555-|
A-11--11-11-11--10--10-10-10--5-555-5-555-| x5
E-9---9--9--9---8---8--8--8---3-333-3-333-|
      .  .  .       .  .  .     ...   ...

Riff Three
E--------------------------|
B--------------------------|
G--------------------------|
D-5-555-5-555-2-222-2-222~-|
A-5-555-5-555-2-222-2-222~-|
E-3-333-3-333-0-000-0-000~-|
    ...   ...   ...   ...

(feedback)

Riff Four
E-----------------------|
B-----------------------|
G-----------------------|
D-2~-2~-2~-2~-8888-8888-|
A-2~-2~-2~-2~-8888-9999-| x4
E-0~-0~-0~-0~-6666-7777-|

Riff Five
E-----------------------|
B-----------------------|
G-----------------------|
D-22~-222~-22~-222~-22~-|
A-22~-222~-22~-222~-22~-|
E-00~-000~-00~-000~-00~-|
  ..  ...  ..  ...  ..
Related for Set Back - Overdone tab